Song name
# A B C D E F G H I J K L M N O P Q R S T U V W X Y Z

Mxpx - Never Learn tab

Intro 4/4
Guitar 1
  1   2    3  4   1   2   3  4   1   2   3   4
e-0------5---4--|-0-----5---4--|-0-----5---4---|5~-|
B---------------|--------------|---------------|---|
G---------------|--------------|---------------|---|
D---------------|--------------|---------------|---|
A---------------|--------------|---------------|---|
E---------------|--------------|---------------|---|

Guitar 2
e---------------|--------------|e---------------|--------------|
B---------------|--------------|B---------------|--------------|
G-9--9-9-9-9-9-9|9--9-9-9-9-9-9|G-6--6-6-6-6-6-6|8--8-8-8-8-8-8|
D-9--9-9-9-9-9-9|9--9-9-9-9-9-9|D-7--7-7-7-7-7-7|9--9-9-9-9-9-9|
A-7--7-7-7-7-7-7|7--7-7-7-7-7-7|A-7--7-7-7-7-7-7|9--9-9-9-9-9-9|
E-0--0-0-0-0-0-0|0--0-0-0-0-0-0|E-5--5-5-5-5-5-5|7--7-7-7-7-7-7|



REFRAIN:
  Why   am I  In love  with a girl
e---------------|--------------|
B---------------|--------------|
G-9--9-9-9-9-9-9|9--9-9-9-9-9-9|
D-9--9-9-9-9-9-9|9--9-9-9-9-9-9|
A-7--7-7-7-7-7-7|7--7-7-7-7-7-7|
E-0--0-0-0-0-0-0|0--0-0-0-0-0-0|

          who treated me oh so badly?
e---------------|--------------|
B---------------|--------------|
G-6--6-6-6-6-6-6|8--8-8-8-8-8-8|
D-7--7-7-7-7-7-7|9--9-9-9-9-9-9|
A-7--7-7-7-7-7-7|9--9-9-9-9-9-9|
E-5--5-5-5-5-5-5|7--7-7-7-7-7-7|


 Why   am I  In love  with a girl
e---------------|--------------|
B---------------|--------------|
G-9--9-9-9-9-9-9|9--9-9-9-9-9-9|
D-9--9-9-9-9-9-9|9--9-9-9-9-9-9|
A-7--7-7-7-7-7-7|7--7-7-7-7-7-7|
E-0--0-0-0-0-0-0|0--0-0-0-0-0-0|

          who made me feel so sadly?
e---------------|--------------|
B---------------|--------------|
G-6--6-6-6-6-6-6|8--8-8-8-8-8-8|
D-7--7-7-7-7-7-7|9--9-9-9-9-9-9|
A-7--7-7-7-7-7-7|9--9-9-9-9-9-9|
E-5--5-5-5-5-5-5|7--7-7-7-7-7-7|



Verse 1:

  I              can't get over 
e---------------|--------------|
B---------------|--------------|
G-6--6-6-6-6-6-6|6--6-6-6-6-6-6|
D-7--7-7-7-7-7-7|7--7-7-7-7-7-7|
A-7--7-7-7-7-7-7|7--7-7-7-7-7-7|
E-5--5-5-5-5-5-5|5--5-5-5-5-5-5|

  you-ou
e---------------|--------------|
B---------------|--------------|
G-9--9-9-9-9-9-9|9--9-9-9-9-9-9|
D-9--9-9-9-9-9-9|9--9-9-9-9-9-9|
A-7--7-7-7-7-7-7|7--7-7-7-7-7-7|
E-0--0-0-0-0-0-0|0--0-0-0-0-0-0|

           Don't what i should 
e---------------|--------------|
B---------------|--------------|
G-6--6-6-6-6-6-6|6--6-6-6-6-6-6|
D-7--7-7-7-7-7-7|7--7-7-7-7-7-7|
A-7--7-7-7-7-7-7|7--7-7-7-7-7-7|
E-5--5-5-5-5-5-5|5--5-5-5-5-5-5|

  do-o
e---------------|--------------|
B---------------|--------------|
G-9--9-9-9-9-9-9|9--9-9-9-9-9-9|
D-9--9-9-9-9-9-9|9--9-9-9-9-9-9|
A-7--7-7-7-7-7-7|7--7-7-7-7-7-7|
E-0--0-0-0-0-0-0|0--0-0-0-0-0-0|


              You Keep me   feelin' 
e---------------|--------------|
B---------------|--------------|
G-6--6-6-6-6-6-6|6--6-6-6-6-6-6|
D-7--7-7-7-7-7-7|7--7-7-7-7-7-7|
A-7--7-7-7-7-7-7|7--7-7-7-7-7-7|
E-5--5-5-5-5-5-5|5--5-5-5-5-5-5|


  down-own
e---------------|--------------|
B---------------|--------------|
G-9--9-9-9-9-9-9|9--9-9-9-9-9-9|
D-9--9-9-9-9-9-9|9--9-9-9-9-9-9|
A-7--7-7-7-7-7-7|7--7-7-7-7-7-7|
E-0--0-0-0-0-0-0|0--0-0-0-0-0-0|

            When you come back a-
e---------------|--------------|
B---------------|--------------|
G-6--6-6-6-6-6-6|6--6-6-6-6-6-6|
D-7--7-7-7-7-7-7|7--7-7-7-7-7-7|
A-7--7-7-7-7-7-7|7--7-7-7-7-7-7|
E-5--5-5-5-5-5-5|5--5-5-5-5-5-5|

  row--hound
e---------------|--------------|
B---------------|--------------|
G-8--8-8-8-8-8-8|8--8-8-8-8-8-8|
D-9--9-9-9-9-9-9|9--9-9-9-9-9-9|
A-9--9-9-9-9-9-9|9--9-9-9-9-9-9|
E-7--7-7-7-7-7-7|7--7-7-7-7-7-7|


REFRAIN:

Why   am I  In love  with a girl
(guitar only these two bars)
e---------------|--------------|
B---------------|--------------|
G-9--9-9-9-9-9-9|9--9-9-9-9-9-9|
D-9--9-9-9-9-9-9|9--9-9-9-9-9-9|
A-7--7-7-7-7-7-7|7--7-7-7-7-7-7|
E-0--0-0-0-0-0-0|0--0-0-0-0-0-0|


          who treated me oh so badly?
e---------------|--------------|
B---------------|--------------|
G-6--6-6-6-6-6-6|8--8-8-8-8-8-8|
D-7--7-7-7-7-7-7|9--9-9-9-9-9-9|
A-7--7-7-7-7-7-7|9--9-9-9-9-9-9|
E-5--5-5-5-5-5-5|7--7-7-7-7-7-7|

  Why   am I  In love  with a girl
e---------------|--------------|
B---------------|--------------|
G-9--9-9-9-9-9-9|9--9-9-9-9-9-9|
D-9--9-9-9-9-9-9|9--9-9-9-9-9-9|
A-7--7-7-7-7-7-7|7--7-7-7-7-7-7|
E-0--0-0-0-0-0-0|0--0-0-0-0-0-0|

          who made me feel so sadly?
e---------------|--------------|
B---------------|--------------|
G-6--6-6-6-6-6-6|8--8-8-8-8-8-8|
D-7--7-7-7-7-7-7|9--9-9-9-9-9-9|
A-7--7-7-7-7-7-7|9--9-9-9-9-9-9|
E-5--5-5-5-5-5-5|7--7-7-7-7-7-7|

Verse 2:

  I              thought i was over
e---------------|--------------|
B---------------|--------------|
G-6--6-6-6-6-6-6|6--6-6-6-6-6-6|
D-7--7-7-7-7-7-7|7--7-7-7-7-7-7|
A-7--7-7-7-7-7-7|7--7-7-7-7-7-7|
E-5--5-5-5-5-5-5|5--5-5-5-5-5-5|

  you-ou
e---------------|--------------|
B---------------|--------------|
G-9--9-9-9-9-9-9|9--9-9-9-9-9-9|
D-9--9-9-9-9-9-9|9--9-9-9-9-9-9|
A-7--7-7-7-7-7-7|7--7-7-7-7-7-7|
E-0--0-0-0-0-0-0|0--0-0-0-0-0-0|

           I still don't have a 
e---------------|--------------|
B---------------|--------------|
G-6--6-6-6-6-6-6|6--6-6-6-6-6-6|
D-7--7-7-7-7-7-7|7--7-7-7-7-7-7|
A-7--7-7-7-7-7-7|7--7-7-7-7-7-7|
E-5--5-5-5-5-5-5|5--5-5-5-5-5-5|

  clue-who
e---------------|--------------|
B---------------|--------------|
G-9--9-9-9-9-9-9|9--9-9-9-9-9-9|
D-9--9-9-9-9-9-9|9--9-9-9-9-9-9|
A-7--7-7-7-7-7-7|7--7-7-7-7-7-7|
E-0--0-0-0-0-0-0|0--0-0-0-0-0-0|


  Why            You came back this
e---------------|--------------|
B---------------|--------------|
G-6--6-6-6-6-6-6|6--6-6-6-6-6-6|
D-7--7-7-7-7-7-7|7--7-7-7-7-7-7|
A-7--7-7-7-7-7-7|7--7-7-7-7-7-7|
E-5--5-5-5-5-5-5|5--5-5-5-5-5-5|


  way-hay
e---------------|--------------|
B---------------|--------------|
G-9--9-9-9-9-9-9|9--9-9-9-9-9-9|
D-9--9-9-9-9-9-9|9--9-9-9-9-9-9|
A-7--7-7-7-7-7-7|7--7-7-7-7-7-7|
E-0--0-0-0-0-0-0|0--0-0-0-0-0-0|

            and you called me up to
e---------------|--------------|
B---------------|--------------|
G-6--6-6-6-6-6-6|6--6-6-6-6-6-6|
D-7--7-7-7-7-7-7|7--7-7-7-7-7-7|
A-7--7-7-7-7-7-7|7--7-7-7-7-7-7|
E-5--5-5-5-5-5-5|5--5-5-5-5-5-5|

  day-hay
e---------------|--------------|
B---------------|--------------|
G-8--8-8-8-8-8-8|8--8-8-8-8-8-8|
D-9--9-9-9-9-9-9|9--9-9-9-9-9-9|
A-9--9-9-9-9-9-9|9--9-9-9-9-9-9|
E-7--7-7-7-7-7-7|7--7-7-7-7-7-7|

REFRAIN:
  Why   am I  In love  with a girl
e---------------|--------------|
B---------------|--------------|
G-9--9-9-9-9-9-9|9--9-9-9-9-9-9|
D-9--9-9-9-9-9-9|9--9-9-9-9-9-9|
A-7--7-7-7-7-7-7|7--7-7-7-7-7-7|
E-0--0-0-0-0-0-0|0--0-0-0-0-0-0|

          who treats me oh so badly?
e---------------|--------------|
B---------------|--------------|
G-6--6-6-6-6-6-6|8--8-8-8-8-8-8|
D-7--7-7-7-7-7-7|9--9-9-9-9-9-9|
A-7--7-7-7-7-7-7|9--9-9-9-9-9-9|
E-5--5-5-5-5-5-5|7--7-7-7-7-7-7|


 Why   am I  In love  with a girl
e---------------|--------------|
B---------------|--------------|
G-9--9-9-9-9-9-9|9--9-9-9-9-9-9|
D-9--9-9-9-9-9-9|9--9-9-9-9-9-9|
A-7--7-7-7-7-7-7|7--7-7-7-7-7-7|
E-0--0-0-0-0-0-0|0--0-0-0-0-0-0|

          who makes me feel so sadly?
e---------------|--------------|
B---------------|--------------|
G-6--6-6-6-6-6-6|8--8-8-8-8-8-8|
D-7--7-7-7-7-7-7|9--9-9-9-9-9-9|
A-7--7-7-7-7-7-7|9--9-9-9-9-9-9|
E-5--5-5-5-5-5-5|7--7-7-7-7-7-7|

Chorus 2/4 Time (half-time)

  I                  guess i'll never
e---------------|--------------|
B-5--5-5-5-5-5-5|5--5-5-5-5-5-5|
G-6--6-6-6-6-6-6|6--6-6-6-6-6-6|
D-6--6-6-6-6-6-6|6--6-6-6-6-6-6|
A-4--4-4-4-4-4-4|4--4-4-4-4-4-4|
E---------------|--------------|

  learn
e---------------|--------------|
B---------------|--------------|
G-6--6-6-6-6-6-6|6--6-6-6-6-6-6|
D-7--7-7-7-7-7-7|7--7-7-7-7-7-7|
A-7--7-7-7-7-7-7|7--7-7-7-7-7-7|
E-5--5-5-5-5-5-5|5--5-5-5-5-5-5|

  whoa-oh-oh whoa-oh I don't wanna
e---------------|--------------|
B-5--5-5-5-5-5-5|5--5-5-5-5-5-5|
G-6--6-6-6-6-6-6|6--6-6-6-6-6-6|
D-6--6-6-6-6-6-6|6--6-6-6-6-6-6|
A-4--4-4-4-4-4-4|4--4-4-4-4-4-4|
E---------------|--------------|

 learn
e---------------|--------------|
B---------------|--------------|
G-6--6-6-6-6-6-6|6--6-6-6-6-6-6|
D-7--7-7-7-7-7-7|7--7-7-7-7-7-7|
A-7--7-7-7-7-7-7|7--7-7-7-7-7-7|
E-5--5-5-5-5-5-5|5--5-5-5-5-5-5|


whoa-oh-oh      whoa-guess i 'll never 
e---------------|--------------|
B-5--5-5-5-5-5-5|5--5-5-5-5-5-5|
G-6--6-6-6-6-6-6|6--6-6-6-6-6-6|
D-6--6-6-6-6-6-6|6--6-6-6-6-6-6|
A-4--4-4-4-4-4-4|4--4-4-4-4-4-4|
E---------------|--------------|

 learn
e---------------|--------------|
B---------------|--------------|
G-6--6-6-6-6-6-6|6--6-6-6-6-6-6|
D-7--7-7-7-7-7-7|7--7-7-7-7-7-7|
A-7--7-7-7-7-7-7|7--7-7-7-7-7-7|
E-5--5-5-5-5-5-5|5--5-5-5-5-5-5|


whoa-oh-oh     whoa-I don't wanna 
e---------------|--------------|
B-5--5-5-5-5-5-5|5--5-5-5-5-5-5|
G-6--6-6-6-6-6-6|6--6-6-6-6-6-6|
D-6--6-6-6-6-6-6|6--6-6-6-6-6-6|
A-4--4-4-4-4-4-4|4--4-4-4-4-4-4|
E---------------|--------------|

   learn
e---------------|--------------|
B---------------|--------------|
G-8--8-8-8-8-8-8|8--8-8-8-8-8-8|
D-9--9-9-9-9-9-9|9--9-9-9-9-9-9|
A-9--9-9-9-9-9-9|9--9-9-9-9-9-9|
E-7--7-7-7-7-7-7|7--7-7-7-7-7-7|


Intro 4/4
Guitar 1
  1   2    3  4   1   2   3  4   1   2   3   4
e-0------5---4--|-0-----5---4--|-0-----5---4---|5~-|
B---------------|--------------|---------------|---|
G---------------|--------------|---------------|---|
D---------------|--------------|---------------|---|
A---------------|--------------|---------------|---|
E---------------|--------------|---------------|---|



Guitar 2
e---------------|--------------|e---------------|--------------|
B---------------|--------------|B---------------|--------------|
G-9--9-9-9-9-9-9|9--9-9-9-9-9-9|G-6--6-6-6-6-6-6|8--8-8-8-8-8-8|
D-9--9-9-9-9-9-9|9--9-9-9-9-9-9|D-7--7-7-7-7-7-7|9--9-9-9-9-9-9|
A-7--7-7-7-7-7-7|7--7-7-7-7-7-7|A-7--7-7-7-7-7-7|9--9-9-9-9-9-9|
E-0--0-0-0-0-0-0|0--0-0-0-0-0-0|E-5--5-5-5-5-5-5|7--7-7-7-7-7-7|

REFRAIN:4/4
  Why   am I  In love  with a girl
e---------------|--------------|
B---------------|--------------|
G-9--9-9-9-9-9-9|9--9-9-9-9-9-9|
D-9--9-9-9-9-9-9|9--9-9-9-9-9-9|
A-7--7-7-7-7-7-7|7--7-7-7-7-7-7|
E-0--0-0-0-0-0-0|0--0-0-0-0-0-0|

          who treated me oh so badly?
e---------------|--------------|
B---------------|--------------|
G-6--6-6-6-6-6-6|8--8-8-8-8-8-8|
D-7--7-7-7-7-7-7|9--9-9-9-9-9-9|
A-7--7-7-7-7-7-7|9--9-9-9-9-9-9|
E-5--5-5-5-5-5-5|7--7-7-7-7-7-7|


 Why   am I  In love  with a girl
e---------------|--------------|
B---------------|--------------|
G-9--9-9-9-9-9-9|9--9-9-9-9-9-9|
D-9--9-9-9-9-9-9|9--9-9-9-9-9-9|
A-7--7-7-7-7-7-7|7--7-7-7-7-7-7|
E-0--0-0-0-0-0-0|0--0-0-0-0-0-0|

          who made me feel so sadly?
e---------------|--------------|
B---------------|--------------|
G-6--6-6-6-6-6-6|8--8-8-8-8-8-8|
D-7--7-7-7-7-7-7|9--9-9-9-9-9-9|
A-7--7-7-7-7-7-7|9--9-9-9-9-9-9|
E-5--5-5-5-5-5-5|7--7-7-7-7-7-7|


Verse 3: 2/4 time(half time)

   I...
e---------------|--------------|
B---------------|--------------|
G-6--6-6-6-6-6-6|6--6-6-6-6-6-6|
D-7--7-7-7-7-7-7|7--7-7-7-7-7-7|
A-7--7-7-7-7-7-7|7--7-7-7-7-7-7|
E-5--5-5-5-5-5-5|5--5-5-5-5-5-5|

                        don't know
e---------------|--------------|
B---------------|--------------|
G-9--9-9-9-9-9-9|9--9-9-9-9-9-9|
D-9--9-9-9-9-9-9|9--9-9-9-9-9-9|
A-7--7-7-7-7-7-7|7--7-7-7-7-7-7|
E-0--0-0-0-0-0-0|0--0-0-0-0-0-0|

   why
e---------------|--------------|
B---------------|--------------|
G-6--6-6-6-6-6-6|6--6-6-6-6-6-6|
D-7--7-7-7-7-7-7|7--7-7-7-7-7-7|
A-7--7-7-7-7-7-7|7--7-7-7-7-7-7|
E-5--5-5-5-5-5-5|5--5-5-5-5-5-5|

                     don't know 
e---------------|--------------|
B---------------|--------------|
G-9--9-9-9-9-9-9|9--9-9-9-9-9-9|
D-9--9-9-9-9-9-9|9--9-9-9-9-9-9|
A-7--7-7-7-7-7-7|7--7-7-7-7-7-7|
E-0--0-0-0-0-0-0|0--0-0-0-0-0-0|
    
  why        
e---------------|--------------|
B---------------|--------------|
G-6--6-6-6-6-6-6|6--6-6-6-6-6-6|
D-7--7-7-7-7-7-7|7--7-7-7-7-7-7|
A-7--7-7-7-7-7-7|7--7-7-7-7-7-7|
E-5--5-5-5-5-5-5|5--5-5-5-5-5-5|



e---------------|--------------|
B---------------|--------------|
G-8--8-8-8-8-8-8|8--8-8-8-8-8-8|
D-9--9-9-9-9-9-9|9--9-9-9-9-9-9|
A-9--9-9-9-9-9-9|9--9-9-9-9-9-9|
E-7--7-7-7-7-7-7|7--7-7-7-7-7-7|
  OUTRO:
 GUITAR 1:
  1        3  4   1       3  4   1   2   3   4
e-7---5----4--2-|-5---4---0--2-|-0-------------|---|
B---------------|--------------|---------------|---|
G---------------|--------------|---------------|---|
D---------------|--------------|---------------|---|
A---------------|--------------|---------------|---|
E---------------|--------------|---------------|---|
                                 .
 GUITAR 2:                       
e---------------|--------------|---|
B---------------|--------------|---|
G-8--8-8-8-8-8-8|8--8-8-8-8-8-8|---|
D-9--9-9-9-9-9-9|9--9-9-9-9-9-9|-2-|
A-9--9-9-9-9-9-9|9--9-9-9-9-9-9|-2-|
E-7--7-7-7-7-7-7|7--7-7-7-7-7-7|-0-|
                                 .

Tap to rate this tab
# A B C D E F G H I J K L M N O P Q R S T U V W X Y Z