Song name
# A B C D E F G H I J K L M N O P Q R S T U V W X Y Z

Mxpx - Talk Of The Town tab

Intro
e|------------------------|                                                             
B|------------------------|                                                        
G|------------------------|                                        
D|--7-----7---------------|                                                
A|--7~----7~--pick-slide--|                                         
E|--5-----5---------------|                                        

e|---------------------|
B|---------------------|
G|----------5-x--------| 2x
D|--7-7-5-x-5-x-5-5-7--|
A|--7-7-5-x-3-x-5-5-7--|
E|--5-5-3-x-----3-3-5--|

e|--------------------|
B|--------------------|
G|--77777777-5-8-5-8--|
D|--77777777-5-8-5-8--| 
A|--55555555-3-6-3-6--|
E|--------------------|

Verse
e|------------------------|
B|------------------------|
G|---------------5-7-8-9--| 4x
D|--77777777-5-x-5-7-8-9--|
A|--77777777-5-x-3-5-6-7--|
E|--55555555-3-x----------|

Solo
e|-----------------------|
B|-----------------------|
G|--------------5-7-8-9--| 2x
D|--7xx-7xx-7xx-5-7-8-9--|
A|--7xx-7xx-7xx-3-5-6-7--|
E|--5xx-5xx-5xx----------|

Chorus
e|----------------------------------------|
B|----------------------------------------|
G|-----------55555555-----------7777-8-9--| 4x  I'm not shure if Tom strums these choards
D|--77777777-55555555-55555555--7777-8-9--|     or if he just lets them ring.
A|--77777777-33333333-55555555--5555-6-7--|     I like to strum them, but you can do eather one.
E|--55555555----------33333333------------|

Brige
e|-----------------------------------------------------|
B|-----------------------------------------------------|
G|-----------------------------8----5---------8----9---|
D|--7----7----------------7----8~---5~---7----8~---9~--|
A|--7~---7~---pick-slide--7~---6----3----7~---6----7---|
E|--5----5----------------5--------------5-------------|

Chorus
e|----------------------------------------|
B|----------------------------------------|
G|-----------55555555-----------7777-8-9--| 4x
D|--77777777-55555555-55555555--7777-8-9--|
A|--77777777-33333333-55555555--5555-6-7--|
E|--55555555----------33333333------------|

Outro
e|--------------------|
B|--------------------|
G|--------55-7-8-7-5--| 4x
D|--77-55-55-7-8-7-5--|
A|--77-55-33-5-6-5-3--|
E|--55-33-------------|

e|------------------|
B|------------------|
G|-----55-77-8-7-5--| 2x
D|--77-55-77-8-7-5--|
A|--77-33-55-6-5-3--|
E|--55--------------|

End Note
e|----------|
B|----------|
G|--8-------|
D|--8~---7--|
A|--6----7--|
E|-------5--|
Tap to rate this tab
# A B C D E F G H I J K L M N O P Q R S T U V W X Y Z