Song name
# A B C D E F G H I J K L M N O P Q R S T U V W X Y Z

Mxpx - Invitation To Understanding Acoustic tab

Third, here we go...
It sound right but it's all up to you guys

Intro/Verse:

e|--------0-----------0-----------0-----------0-------|
B|----3-----3-----3-----3-----3-----3-----3-----3-----|
G|------2-----2-----2-----2-----0-----0-----0-----0---|
D|--0-------------------------------------------------|
A|----------------------------------------------------|
E|--------------2-----------3-----------3-------------|

  -------------------------------------------------------|
  --------3-2-------------3-2----------------------------|
  ------4-----4---------4-----4-----------------------0--|
  ----4---------4-----4---------4-----2---0---4---2------|
  --2-------------2-0-------------0----------------------|
  ----------------------------------3---3---3---3---3----|

Come on understanding, visit me for once today
I'll be grateful you don't even have to stay
It must be hard for you to get over to my side of town
I know there's many people like me to be found

Chorus:

e|----------2---------------2---------------3---------------0--------|
B|--------3---3-----------3---3-----------0---0-------3-------3------|
G|------4-------4-------4-------4-------0-------0-------2-------2----|
D|----4-----------4---4-----------4---0-----------0-0-----0-------0--|
A|--2---------------0------------------------------------------------|
E|----------------------------------3--------------------------------|

  ------------------------------------------------------|  (during this part
  --------3-2-----------3-2-----------------------------|   it's usually strum
  ------4-----4-------4-----4---------------------0-----|   but I just like this
  ----4---------4---4---------4---2---0---4---2---------|   more)
  --2-------------0-------------------------------------|  (x2)
  ------------------------------3---3---3---3---3-------|

If you're knocking at my door and I am not around
Foolishness came by and we're down town
Please don't leave please come on in and make yourself at home
I know you're probably used to being alone

Verse 2:

e|--------0-----------0-----------0-----------0-------|
B|----3-----3-----3-----3-----3-----3-----3-----3-----|
G|------2-----2-----2-----2-----0-----0-----0-----0---|
D|--0-------------------------------------------------|
A|----------------------------------------------------|
E|--------------2-----------3-----------3-------------|

  -------------------------------------------------------|
  --------3-2-------------3-2----------------------------|
  ------4-----4---------4-----4-----------------------0--|
  ----4---------4-----4---------4-----2---0---4---2------|
  --2-------------2-0-------------0----------------------|
  ----------------------------------3---3---3---3---3----|

Everyone keeps telling me you're something that you're not
But I know if I met you I'd like you a lot
What exactly does it take to bring you to my door
By the time that you arrive I won't live here no more

Chorus:

e|----------2---------------2---------------3---------------0--------|
B|--------3---3-----------3---3-----------0---0-------3-------3------|
G|------4-------4-------4-------4-------0-------0-------2-------2----|
D|----4-----------4---4-----------4---0-----------0-0-----0-------0--|
A|--2---------------0------------------------------------------------|
E|----------------------------------3--------------------------------|

  ---------------------------------------------------|
  --------3-2-----------3-2--------------------------|
  ------4-----4-------4-----4---------------------0--|  (x2)
  ----4---------4---4---------4---2---0---4---2------|
  --2-------------0----------------------------------|
  ------------------------------3---3---3---3---3----|

If you're knocking at my door and I am not around
Foolishness came by and we're down town
Please don't leave please come on in and make yourself at home
I know you're probably used to being alone

Bridge:

e|----------2---------------2---------------3---------------0--------|
B|--------3---3-----------3---3-----------0---0-------3-------3------|
G|------4-------4-------4-------4-------0-------0-------2-------2----|
D|----4-----------4---4-----------4---0-----------0-0-----0-------0--|
A|--2---------------0------------------------------------------------|
E|----------------------------------3--------------------------------|

  ------------------------------------------0-----------0--------|
  --------3-2-----------3-2-----------2-------2---2-------2------|
  ------4-----4-------4-----4-------2---2-------2---2-------2----|  (x2)
  ----4---------4---4---------4---2-------2-----------2-------2--|
  --2-------------0-------------0--------------------------------|
  ---------------------------------------------------------------|

What can I do, There's no one here but me
And nothing's on T.V
Who could you be, i really wouldn't know
Where else you might go

Chorus:

e|----------2---------------2---------------3---------------0--------|
B|--------3---3-----------3---3-----------0---0-------3-------3------|
G|------4-------4-------4-------4-------0-------0-------2-------2----|
D|----4-----------4---4-----------4---0-----------0-0-----0-------0--|
A|--2---------------0------------------------------------------------|
E|----------------------------------3--------------------------------|

  ------------------------------------------------------|
  --------3-2-----------3-2-----------------------------|
  ------4-----4-------4-----4---------------------0-----|  (x2)
  ----4---------4---4---------4---2---0---4---2-----(0)-|<(last note
  --2-------------0-------------------------------------|  only second time)
  ------------------------------3---3---3---3---3-------|

If you're knocking at my door and I am not around
Foolishness came by and we're down town
Please don't leave please come on in and make yourself at home
I know you're probably used to being alone

Outro:

e|-----------------------2--|
B|-----------------------3--|
G|-----------------------2--|
D|----2---0---5---4---2--0--|
A|-----------------------0--|
E|--3---3---3---3---3----x--|
Tap to rate this tab
 
# A B C D E F G H I J K L M N O P Q R S T U V W X Y Z