Song name
# A B C D E F G H I J K L M N O P Q R S T U V W X Y Z

Mxpx - My Mom Still Cleans My Room tab

-------------------------------------------------------------------------------
			     MY MOM STILL CLEANS MY ROOM - MxPx
-------------------------------------------------------------------------------
Tabbed by: Punk Rock Mike
Email: punkrockmike@hotmail.com

Tuning: Standard

Real Good song from Life in General, my favorite album by MxPx.  


************************************

| /   slide up
| \   slide down
| h   hammer-on
| p   pull-off
| ~   vibrato
| +   harmonic
| x   Mute note
| b   Bend
| *   Palm Mute

************************************


Main Riff
e|-------------------------------------------------------|
B|-------------------------------------------------------|
G|--99999999-88888888-14-14-14-14-14-14-14-14-9999-6666--| 2x
D|--xxxxxxxx-xxxxxxxx-x--x--x--x--x--x--x--x--xxxx-xxxx--|
A|--77777777-66666666-12-12-12-12-12-12-12-12-7777-4444--|
E|-------------------------------------------------------|

Verse
e|----------------------------------|
B|----------------------------------|
G|--9-----8-----6-----6--8888-9999--| 2x
D|--x-----x-----x-----x--xxxx-xxxx--|
A|--7-----6-----4-----4--6666-7777--|
E|----------------------------------|

Main Riff
e|-------------------------------------------------------|
B|-------------------------------------------------------|
G|--99999999-88888888-14-14-14-14-14-14-14-14-9999-6666--| 2x
D|--xxxxxxxx-xxxxxxxx-x--x--x--x--x--x--x--x--xxxx-xxxx--|
A|--77777777-66666666-12-12-12-12-12-12-12-12-7777-4444--|
E|-------------------------------------------------------|

Pre Chorus
e|------------------------------------------------------|
B|------------------------------------------------------|
G|--99999999-88888888-14-14-14-14-14-14-14-14-88888888--| 2x
D|--xxxxxxxx-xxxxxxxx-x--x--x--x--x--x--x--x--xxxxxxxx--|
A|--77777777-66666666-12-12-12-12-12-12-12-12-66666666--|
E|------------------------------------------------------|

Chorus
e|-----------------------------------------------|
B|-----------------------------------------------|
G|--9--9-9-9-------------------------------------| 2x
D|--9--9-9-9-9--9-9-9--4-4-4-4-4-4-66-777777777--|
A|--7--7-7-7-9--9-9-9--4-4-4-4-4-4-66-777777777--|
E|-----------7--7-7-7--2-2-2-2-2-2-44-555555555--|

Verse
e|----------------------------------|
B|----------------------------------|
G|--9-----8-----6-----6--8888-9999--| 2x
D|--x-----x-----x-----x--xxxx-xxxx--|
A|--7-----6-----4-----4--6666-7777--|
E|----------------------------------|

Main Riff
e|-------------------------------------------------------|
B|-------------------------------------------------------|
G|--99999999-88888888-14-14-14-14-14-14-14-14-9999-6666--| 2x
D|--xxxxxxxx-xxxxxxxx-x--x--x--x--x--x--x--x--xxxx-xxxx--|
A|--77777777-66666666-12-12-12-12-12-12-12-12-7777-4444--|
E|-------------------------------------------------------|

Pre Chorus
e|------------------------------------------------------|
B|------------------------------------------------------|
G|--99999999-88888888-14-14-14-14-14-14-14-14-88888888--| 2x
D|--xxxxxxxx-xxxxxxxx-x--x--x--x--x--x--x--x--xxxxxxxx--|
A|--77777777-66666666-12-12-12-12-12-12-12-12-66666666--|
E|------------------------------------------------------|

Chorus
e|-----------------------------------------------|
B|-----------------------------------------------|
G|--9--9-9-9-------------------------------------| 2x
D|--9--9-9-9-9--9-9-9--4-4-4-4-4-4-66-777777777--|
A|--7--7-7-7-9--9-9-9--4-4-4-4-4-4-66-777777777--|
E|-----------7--7-7-7--2-2-2-2-2-2-44-555555555--|

Ending
e|----------------------------------------|
B|----------------------------------------|
G|--9---7---5-----5-7---5-7-9\------------|
D|--x---x---x---5-5-7-5-5-7-9\---22---22--|
A|--7---5---3---5-3-5-5-3-5-7\---22---22--|
E|--------------3-----3----------00---00--|
                                 **   **
e|------------------------------------------|
B|------------------------------------------|
G|----5-7---5-7-99999999-77777777-55555555--| 2x
D|--5-5-7-5-5-7-xxxxxxxx-xxxxxxxx-xxxxxxxx--|
A|--5-3-5-5-3-5-77777777-55555555-33333333--|
E|--3-----3---------------------------------|

e|------------------|
B|------------------|
G|----5-7---5-7-9\--|
D|--5-5-7-5-5-7-9\--|
A|--5-3-5-5-3-5-7\--|
E|--3-----3---------|
Tap to rate this tab
 
# A B C D E F G H I J K L M N O P Q R S T U V W X Y Z