Song name
# A B C D E F G H I J K L M N O P Q R S T U V W X Y Z

Mxpx - Anywhere But Here tab

anywhere but here, MxPx

          this is the verse it starts and ends with this, listen to the song to know 
where to play it
e|---------------------------------------------------------------------------|
B|---------------------------------------------------------------------------|
G|---------------------------------------------------------------------------|
D|--5-5-2-2-2-2-5-5-2-2-2-2-7-7-7-7-7-7--------------------------------------|
A|--3-3-0-0-0-0-3-3-0-0-0-0-5-5-5-5-5-5-9-9-9-9-9-9-9-9-5-5-5-5-5-5-5-5------|
E|--------------------------------------7-7-7-7-7-7-7-7-3-3-3-3-3-3-3-3------|



        this is the pre-chorus, once again listen to the song to know where to play
e|---------------------------------------------------------------------------|
B|---------------------------------------------------------------------------|
G|---------------------------------------------------------------------------|
D|--7-7-7-7-7-7-7-7---------4-4-5-5------------------------------------------|
A|--5-5-5-5-5-5-5-5-4-4-5-5-2-2-3-3------------------------------------------|
E|------------------2-2-3-3--------------------------------------------------|




       this is the chorus, and it has a different strum  pattern, and down strums at the end
e|---------------------------------------------------------------------------|
B|---------------------------------------------------------------------------|
G|--7-7-7-7-7-7-7-7-7-7-7-7-7------------------------------------------------|
D|--5-5-5-5-5-5-5-5-5-5-5-5-5-------------4-4-4-5-5-5------------------------|
A|----------------------------4-4-4-5-5-5-2-2-2-3-3-3------------------------|
E|----------------------------2-2-2-3-3-3------------------------------------|


       thats pretty much the whole song
Tap to rate this tab
# A B C D E F G H I J K L M N O P Q R S T U V W X Y Z