Song name
# A B C D E F G H I J K L M N O P Q R S T U V W X Y Z

Mxpx - Creation tab

-------------------------------------------------------------------------------
                             CREATION - MxPx
-------------------------------------------------------------------------------
Tabbed by: Punk Rock Mike
Email: punkrockmike@hotmail.com

Tuning: Standard

Another fast paced MxPx song. (Need I say More.)


Intro
e|----------------------------|
B|----------------------------|
G|----9------9------9------9--|
D|--7-9----7-9----7-9----7-9--|
A|--7-7----7-7----7-7----7-7--|
E|--5------5------5------5----|

Verse 
e|----------------------|
B|----------------------|
G|------------7777---9--| 4x
D|--9999-6666-7777-7-9--|
A|--9999-6666-5555-7-7--|
E|--7777-4444------5----|

Chorus
e|-----------------------------------------|
B|-----------------------------------------|
G|---------------7---9--------------9------| 4x
D|--666666666666-7-7-9-999999999999-9-9-7--|
A|--666666666666-5-7-7-999999999999-7-9-7--|
E|--444444444444---5---777777777777---7-5--|

Verse 
e|----------------------|
B|----------------------|
G|------------7777---9--| 6x
D|--9999-6666-7777-7-9--|
A|--9999-6666-5555-7-7--|
E|--7777-4444------5----|

Chorus
e|-----------------------------------------|
B|-----------------------------------------|
G|---------------7---9--------------9------| 4x
D|--666666666666-7-7-9-999999999999-9-9-7--|
A|--666666666666-5-7-7-999999999999-7-9-7--|
E|--444444444444---5---777777777777---7-5--|

Outro
e|---------------------------------|
B|---------------------------------|
G|-----------7---9----------9------|
D|--6~~~~~~~-7-7-9-9~~~~~~~-9-9-7--|
A|--6~~~~~~~-5-7-7-9~~~~~~~-7-9-7--|
E|--4~~~~~~~---5---7~~~~~~~---7-5--|

e|----------------------------|
B|----------------------------|
G|-----------7---9------------|
D|--6~~~~~~~-7-7-9-9~~~~~~~9--|
A|--6~~~~~~~-5-7-7-9~~~~~~~9--|
E|--4~~~~~~~---5---7~~~~~~~7--|
Tap to rate this tab
# A B C D E F G H I J K L M N O P Q R S T U V W X Y Z