Song name
# A B C D E F G H I J K L M N O P Q R S T U V W X Y Z

Mxpx - Tomorrow Is Another Day tab

Tommorow's Another Day by MxPx
From Slowly Going the Way of the Buffalo
Tabbed by chargerbandit
Tabbed 17.8.2012

Amazing song

(/) Slide Up  (\) Slide Down  (h) Hammer On  (p) Pull Off  (b) Bend (r) Release (v) 
Vibrato (l) Let ring

intro - palm mute
E|-----------------------------------|
B|-----------------------------------|
G|-----------------------------------|
D|-----------------------------------|
A|-44444444--------------------------|
E|-22222222--------------------------|


riff1 - "i dont want to..." palm mute,
play 2x, last time let ring last chord
E|-----------------------------------|
B|-----------------------------------|
G|-----------------------------------|
D|-4444------6666-2222---------------|
A|-2222-4444-4444-2222---------------|
E|------2222------0000---------------|


riff2 - play 4x
E|-----------------------------------|
B|-----------------------------------|
G|-----------------------------------|
D|-4444------6666-2222---------------|
A|-2222-4444-4444-2222---------------|
E|------2222------0000---------------|


riff3 - 2x
E|-----------------------------------|
B|-----------------------------------|
G|-----------------------------------|
D|-44----22222222--------------------|
A|-22-44-22222222--------------------|
E|----22-00000000--------------------|


solo - repeat 2x
E|-----------------------------------|
B|-----------------------------------|
G|-8-6-4-3l--9-8-4--9-8-6------------|
D|-----------------------------------|
A|-6-4-2-1l--7-6-2--7-6-4------------|
E|-----------------------------------|
end on
E|-----------------------------------|
B|-----------------------------------|
G|-11l-------------------------------|
D|-----------------------------------|
A|--9l-------------------------------|
E|-----------------------------------|


then play palm muting like in intro, continue on
riff2
riff3


then play riff4
E|-----------------------------------|
B|-----------------------------------|
G|-----------------------------------|
D|-4l----6l--------------------------|
A|-2l-4l-4l-2l-4l--------------------|
E|----2l----0l-2l--------------------|

then riff5 2x, slower rythm
E|-----------------------------------|
B|-----------------------------------|
G|-----------------------------------|
D|-4444------6666--------------------|
A|-2222-4444-4444-22-44--------------|
E|------2222------00-22--------------|


the slow part you can play riff4 with clean sound, 2x


riff6 - "if you want to..." play 2x
E|-----------------------------------|
B|-----------------------------------|
G|-888-4--888-4--888-9--8-6-4--------|
D|-----------------------------------|
A|-666-2--666-2--666-7--6-4-2--------|
E|-----------------------------------|
a quick slide up and down at the final 3 chords,like the melody


the just play this until the end, play 2x
E|-----------------------------------|
B|-----------------------------------|
G|-1111111111111111-8-6-4------------|
D|-----------------------------------|
A|--9-9-9-9-9-9-9-9-6-4-2------------|
E|-----------------------------------|

If you find and mistakes or want me to tab a punkrock song,
email me at: chargerbandit.69@gmail.com

Have fun!
Tap to rate this tab
# A B C D E F G H I J K L M N O P Q R S T U V W X Y Z