Song name
# A B C D E F G H I J K L M N O P Q R S T U V W X Y Z

Mxpx - Inside Out tab

-----------------------------------------------------------------------------
                                    Inside Out - MXPX
-----------------------------------------------------------------------------
Tabbed by:NofxMIke
E-mail:N/A
Album: Plans Within Plans (2012)
Track: No.12
Chords Used: C,Bb,Gm, Dmaj7/Gb,E5,F5, G5,F, Cm, Am, Asus2,Csus2, Csus4,

 Tuning:EADgbe

Intro:
  Lead Guitar:
  G5                   E5              D5              F5        E5
e|--------------------|---------------|---------------|-----------------|
B|--------------------|---------------|---------------|-----------------|
G|12-12--12--12-12--12|9-9--9--9-9--9-|7-7--7--7-7--7-|10-10--10-9-9--9-|
D|x--x---x---x--x---x-|x-x--x--x-x--x-|x-x--x--x-x--x-|x--x---x--x-x--x-|
A|10-10--10--10-10--10|7-7--7--7-7--7-|5-5--5--5-5--5-|8--8---8--7-7--7-|
E|--------------------|---------------|---------------|-----------------|

  Rhythm Guitar:
  C5(implied tonality)
e|---------------|---------------|---------------|---------------|
B|---------------|---------------|---------------|---------------|
G|---------------|---------------|---------------|---------------|
D|5-------5------|5-------5------|5-------5------|5-------5------|
A|3-3--3--3-3--3-|3-3--3--3-3--3-|3-3--3--3-3--3-|3-3--3--3-3--3-|
E|---------------|---------------|---------------|---------------|




  Lead Guitar:
  G5                   E5              D5              F5        E5
e|--------------------|---------------|---------------|-----------------|
B|--------------------|---------------|---------------|-----------------|
G|12-12--12--12-12--12|9-9--9--9-9--9-|7-7--7--7-7--7-|10-10--10-9-9--9-|
D|x--x---x---x--x---x-|x-x--x--x-x--x-|x-x--x--x-x--x-|x--x---x--x-x--x-|
A|10-10--10--10-10--10|7-7--7--7-7--7-|5-5--5--5-5--5-|8--8---8--7-7--7-|
E|--------------------|---------------|---------------|-----------------|

  Rhythm Guitar:
  A5(implied tonality)
e|---------------|---------------|---------------|---------------|
B|---------------|---------------|---------------|---------------|
G|---------------|---------------|---------------|---------------|
D|2-------2------|2-------2------|2-------2------|2-------2------|
A|0-0--0--0-0--0-|0-0--0--0-0--0-|0-0--0--0-0--0-|0-0--0--0-0--0-|
E|---------------|---------------|---------------|---------------|




  Lead Guitar:
  G5                   E5              D5              F5        E5
e|--------------------|---------------|---------------|-----------------|
B|--------------------|---------------|---------------|-----------------|
G|12-12--12--12-12--12|9-9--9--9-9--9-|7-7--7--7-7--7-|10-10--10-9-9--9-|
D|x--x---x---x--x---x-|x-x--x--x-x--x-|x-x--x--x-x--x-|x--x---x--x-x--x-|
A|10-10--10--10-10--10|7-7--7--7-7--7-|5-5--5--5-5--5-|8--8---8--7-7--7-|
E|--------------------|---------------|---------------|-----------------|

  Rhythm Guitar:
  F5(implied tonality)
e|---------------|---------------|---------------|---------------|
B|---------------|---------------|---------------|---------------|
G|---------------|---------------|---------------|---------------|
D|3-3--3--3-3--3-|3-3--3--3-3--3-|3-3--3--3-3--3-|3-3--3--3-3--3-|
A|3-------3------|3-------3------|3-------3------|3-------3------|
E|1-------1------|1-------1------|1-------1------|1-------1------|




  Lead Guitar:
  G5              F5             C
e|---------------|---------------|---------------|---/////Pickslide--|
B|---------------|---------------|---------------|------//////////|--|
G|---------------|---------------|---------------|-------------------|
D|5-5--5--5-5--5-|3-3--3--3-3--3-|2--------------|-------------------|
A|---------------|---------------|3--------------|-------------------|
E|3-3--3--3-3--3-|1-1--1--1-1--1-|---------------|-------------------|

  Rhythm Guitar:
  C5(implied tonality)
e|---------------|---------------|---------------|---------------|
B|---------------|---------------|---------------|---------------|
G|---------------|---------------|---------------|---------------|
D|5-------5------|5-------5------|5--------------|---------------|
A|3-3--3--3-3--3-|3-3--3--3-3--3-|3--------------|---------------|
E|---------------|---------------|---------------|---------------|End Rhythm Fig 1.


  Verses:
1)I wanna be the person you can     talk            to
2)Many thoughts that we let go un-  spok-           en

  Gm                                 Cm
e|3-3--3--3-3--3-|-3-3--3--3-3--3|--3-3--3--3-3--3|--3-3--3--3-3--3|
B|3-3--3--3-3--3-|-3-3--3--3-3--3|--4-4--4--4-4--4|--4-4--4--4-4--4|
G|3-3--3--3-3--3-|-3-3--3--3-3--3|--5-5--5--5-5--5|--5-5--5--5-5--5|
D|5-5--5--5-5--5-|-5-5--5--5-5--5|--5-5--5--5-5--5|--5-5--5--5-5--5|
A|5-5--5--5-5--5-|-5-5--5--5-5--5|--3-3--3--3-3--3|--3-3--3--3-3--3|
E|3-3--3--3-3--3-|-3-3--3--3-3--3|----------------|----------------|

1)But talking's not the easy thing to do
2)The silence we created needs to be broken
  F                                 Bb               A5      Dmaj7/Gb
e|1-1--1--1-1--1-|-1-1--1--1-1--1|--1-1--1--1-1--1|----------------|
B|1-1--1--1-1--1-|-1-1--1--1-1--1|--3-3--3--3-3--3|----------------|
G|2-2--2--2-2--2-|-2-2--2--2-2--2|--3-3--3--3-3--3|----------------|
D|3-3--3--3-3--3-|-3-3--3--3-3--3|--3-3--3--3-3--3|--2-2--2--------|
A|3-3--3--3-3--3-|-3-3--3--3-3--3|--1-1--1--1-1--1|--0-0--0--5-5--5|
E|1-1--1--1-1--1-|-1-1--1--1-1--1|----------------|----------2-2--2|


1)Our lives are full of so many dis- trac-     tions      In-
2)The pain feels like your bleeding from the inside out
  Gm                                 Cm
e|3-3--3--3-3--3-|-3-3--3--3-3--3|--3-3--3--3-3--3|--3-3--3--3-3--3|
B|3-3--3--3-3--3-|-3-3--3--3-3--3|--4-4--4--4-4--4|--4-4--4--4-4--4|
G|3-3--3--3-3--3-|-3-3--3--3-3--3|--5-5--5--5-5--5|--5-5--5--5-5--5|
D|5-5--5--5-5--5-|-5-5--5--5-5--5|--5-5--5--5-5--5|--5-5--5--5-5--5|
A|5-5--5--5-5--5-|-5-5--5--5-5--5|--3-3--3--3-3--3|--3-3--3--3-3--3|
E|3-3--3--3-3--3-|-3-3--3--3-3--3|----------------|----------------|

1)actions                           How on earth could we be bored when
2)There's no doubt                  it's time to take the bandage off
  F                                 Bb               Am
e|1-1--1--1-1--1-|-1-1--1--1-1--1|--1-1--1--1-1--1|----------------|
B|1-1--1--1-1--1-|-1-1--1--1-1--1|--3-3--3--3-3--3|----------------|
G|2-2--2--2-2--2-|-2-2--2--2-2--2|--3-3--3--3-3--3|----------------|
D|3-3--3--3-3--3-|-3-3--3--3-3--3|--3-3--3--3-3--3|--2-2--2--2-2--2|
A|3-3--3--3-3--3-|-3-3--3--3-3--3|--1-1--1--1-1--1|--0-0--0--0-0--0|
E|1-1--1--1-1--1-|-1-1--1--1-1--1|----------------|----------------|

1)there's     so     much      to   do
2)And         tear   your   sutures out
  Dmaj7/Gb                             Dmaj7/Gb            Gm
e|2--------------|---------------|----------------|--3-3--3--3-3--3|
B|2--------------|---------------|----------------|--3-3--3--3-3--3|
G|2--------------|---------------|----------------|--3-3--3--3-3--3|
D|4--------------|---------------|--4-4--4--4-4--4|--5-5--5--5-5--5|
A|5--------------|---------------|--5-5--5--5-5--5|--5-5--5--5-5--5|
E|2--------------|---------------|--2-2--2--2-2--2|--3-3--3--3-3--3|End Rhythm Fig 2.

  Chorus/Refrain:
  1)I wanna see your insides on the out
  Cm                                Gm
e|3-3--3--3-3--3-|-3-3--3--3-3--3|--3-3--3--3-3--3|--3-3--3--3-3--3|
B|4-4--4--4-4--4-|-4-4--4--4-4--4|--3-3--3--3-3--3|--3-3--3--3-3--3|
G|5-5--5--5-5--5-|-5-5--5--5-5--5|--3-3--3--3-3--3|--3-3--3--3-3--3|
D|5-5--5--5-5--5-|-5-5--5--5-5--5|--5-5--5--5-5--5|--5-5--5--5-5--5|
A|3-3--3--3-3--3-|-3-3--3--3-3--3|--5-5--5--5-5--5|--5-5--5--5-5--5|
E|---------------|---------------|--3-3--3--3-3--3|--3-3--3--3-3--3|

1)I wanna know the things you think about                    Like what
  Cm                                Gm
e|3-3--3--3-3--3-|-3-3--3--3-3--3|--3-3--3--3-3--3|--3-3--3--3-3--3|
B|4-4--4--4-4--4-|-4-4--4--4-4--4|--3-3--3--3-3--3|--3-3--3--3-3--3|
G|5-5--5--5-5--5-|-5-5--5--5-5--5|--3-3--3--3-3--3|--3-3--3--3-3--3|
D|5-5--5--5-5--5-|-5-5--5--5-5--5|--5-5--5--5-5--5|--5-5--5--5-5--5|
A|3-3--3--3-3--3-|-3-3--3--3-3--3|--5-5--5--5-5--5|--5-5--5--5-5--5|
E|---------------|---------------|--3-3--3--3-3--3|--3-3--3--3-3--3|



1) you've    been  through                                    What you
   Am        Asus2 Am              Am        Asus2 Am
e|-0-----------0-|-0-------------|-0-----------0-|-0---------------|
B|-1-----------0-|-1-------------|-1-----------0-|-1---------------|
G|-2-----------2-|-2-------------|-2-----------2-|-2---------------|
D|-2-----------2-|-2-------------|-2-----------2-|-2---------------|
A|-0-----------0-|-0-------------|-0-----------0-|-0---------------|
E|---------------|---------------|---------------|-----------------|

1) plan        to  do
   Cm        Csus2 Cm              Cm        Csus2 Cm
e|-3-----------3-|-3-------------|-3-----------3-|-3---------------|
B|-4-----------3-|-4-------------|-4-----------3-|-4---------------|
G|-5-----------5-|-5-------------|-5-----------5-|-5---------------|
D|-5-----------5-|-5-------------|-5-----------5-|-5---------------|
A|-3-----------3-|-3-------------|-3-----------3-|-3---------------|
E|---------------|---------------|---------------|-----------------|


 1)We've   all got   scars, so     tell me who you really      are
 2)I'm     your registrar   so     tell me who you really      are
 3)We've   all got   scars, so     tell me who you really      are
  D5               E5               F5                G5
e|---------------|---------------|-----------------|-----------------|
B|---------------|---------------|-----------------|-----------------|
G|7----7--7----7-|-9----9--9----9|--10---10-10---10|--12---12-12---12|
D|7----7--7----7-|-9----9--9----9|--10---10-10---10|--12---12-12---12|
A|5----5--5----5-|-7----7--7----7|--8----8--8----8-|--10---10-10---10|
E|---------------|---------------|-----------------|-----------------|End Rhythm Fig 
3.(Third time only let chords ring)

Play Rhythm Fig 1.
Return to verses
Chorus/Refrain Again
Outro:



  Lead Guitar:
  G5              E5              D5               F5      E5
e|---------------|---------------|---------------|---------------|
B|---------------|---------------|---------------|---------------|
G|12--12-12---12-|9----9--9----9-|7----7--7----7-|10---10-9----9-|
D|x---x--x----x--|x----x--x----x-|x----x--x----x-|x----x--x----x-|
A|10--10-10---10-|7----7--7----7-|5----5--5----5-|8----8--7----7-|
E|---------------|---------------|---------------|---------------|

  Rhythm Guitar:
  C5(implied tonality)
e|---------------|---------------|---------------|---------------|
B|---------------|---------------|---------------|---------------|
G|---------------|---------------|---------------|---------------|
D|5----5--5----5-|5----5--5----5-|5----5--5----5-|5----5--5----5-|
A|3----3--3----3-|3----3--3----3-|3----3--3----3-|3----3--3----3-|
E|---------------|---------------|---------------|---------------|




  Lead Guitar:
  G5              E5              D5               F5      E5
e|---------------|---------------|---------------|---------------|
B|---------------|---------------|---------------|---------------|
G|12--12-12---12-|9----9--9----9-|7----7--7----7-|10---10-9----9-|
D|x---x--x----x--|x----x--x----x-|x----x--x----x-|x----x--x----x-|
A|10--10-10---10-|7----7--7----7-|5----5--5----5-|8----8--7----7-|
E|---------------|---------------|---------------|---------------|


  Rhythm Guitar:
  A5(implied tonality)
e|---------------|---------------|---------------|---------------|
B|---------------|---------------|---------------|---------------|
G|---------------|---------------|---------------|---------------|
D|2----2--2----2-|2----2--2----2-|2----2--2----2-|2----2--2----2-|
A|0----0--0----0-|0----0--0----0-|0----0--0----0-|0----0--0----0-|
E|---------------|---------------|---------------|---------------|




  Lead Guitar:
  G5              E5              D5               F5      E5
e|---------------|---------------|---------------|---------------|
B|---------------|---------------|---------------|---------------|
G|12--12-12---12-|9----9--9----9-|7----7--7----7-|10---10-9----9-|
D|x---x--x----x--|x----x--x----x-|x----x--x----x-|x----x--x----x-|
A|10--10-10---10-|7----7--7----7-|5----5--5----5-|8----8--7----7-|
E|---------------|---------------|---------------|---------------|



  Rhythm Guitar:
  F5(implied tonality)
e|---------------|---------------|---------------|---------------|
B|---------------|---------------|---------------|---------------|
G|---------------|---------------|---------------|---------------|
D|3----3--3----3-|3----3--3----3-|3----3--3----3-|3----3--3----3-|
A|3----3--3----3-|3----3--3----3-|3----3--3----3-|3----3--3----3-|
E|1----1--1----1-|1----1--1----1-|1----1--1----1-|1----1--1----1-|




  G5              F5             C
e|---------------|---------------|---------------|---------------|
B|---------------|---------------|---------------|---------------|
G|---------------|---------------|---------------|---------------|
D|5----5--5----5-|3----3--3----3-|2--------------|---------------|
A|---------------|---------------|3-Let Ring-----|---------------|
E|3----3--3----3-|1----1--1----1-|---------------|---------------|

  Rhythm Guitar:
  C5(implied tonality)
e|---------------|---------------|---------------|---------------|
B|---------------|---------------|---------------|---------------|
G|---------------|---------------|---------------|---------------|
D|5----5--5----5-|5----5--5----5-|5--------------|---------------|
A|3----3--3----3-|3----3--3----3-|3-Let Ring-----|---------------|
E|---------------|---------------|---------------|---------------|End Rhythm Fig 4.
************************************

| /   slide up
| \   slide down
| h   hammer-on
| p   pull-off
| ~   vibrato
| +   harmonic
| x   Mute note
| b   Bend
| pb  Pre-bend
| br  Bend release
| pbr Pre-bend release
| brb Bend release bend

************************************
Tap to rate this tab
 
# A B C D E F G H I J K L M N O P Q R S T U V W X Y Z