Song name
# A B C D E F G H I J K L M N O P Q R S T U V W X Y Z

Mxpx - New York To Nowhere tab

-----------------------------------------------------------------------------
                             New York to Nowhere - MXPX
-----------------------------------------------------------------------------
Tabbed by:nofxmike06
E-mail:N/A
Album:Life in General(1996)
Tuning:EADgbe(Standard)
Key of F
Chords Used: F5, Bb5, A5, G5, C5, D5, E5

Note: All Rhythm Riffs are very similar but the chords differ.

 Intro Lead Riff:
   F5                          Bb5        A5                    
e|--------------------------|-------------------------|
B|--6--6-6--6--6-6--6--6-6--|--11--11-11--10--10-10---|
G|--X--X-X--X--X-X--X--X-X--|--X---X--X---X---X--X----|
D|--3--3-3--3--3-3--3--3-3--|--8---8--8---7---7--7----|
A|--------------------------|-------------------------|
E|--------------------------|-------------------------|
    
    G5      A5                               
e|-------------------------|
B|--8--8-8--10--10-10------|
G|--X--X-X--X---X--X-------|
D|--5--5-5--7---7--7-------|
A|-------------------------|
E|-------------------------|

    F5                         Bb5        A5 
e|--------------------------|-------------------------|
B|--6--6-6--6--6-6--6--6-6--|--11--11-11--10--10-10---|
G|--X--X-X--X--X-X--X--X-X--|--X---X--X---X---X--X----|
D|--3--3-3--3--3-3--3--3-3--|--8---8--8---7---7--7----|
A|--------------------------|-------------------------|
E|--------------------------|-------------------------|
                             Second Time Jump to Rhythm Riff 2
    C5
e|-------------------------|
B|--13--13-13--13--13-13---|
G|--X---X--X---X---X--X----|
D|--10--10-10--10--10-10---|
A|-------------------------|
E|-------------------------|Repeat x1
  

Rhythm Riff 2:   
      A5                  C5
e|-----------------------------|
B|-----------------------------|
G|-----------------------------|
D|----7----7--7--7-7--7-7-10---|
A|----7----7--7--7-7--7-7-10---|
E|----5----5--5--5-5--5-5-8----|
      ^       ^  ^ ^      ^


    Verse One:
    
   
    F5             
e|--------------------------------------|
B|--------------------------------------|
G|--10--10-10--10--10-10---10--10-10X---|
D|--10--10-10--10--10-10---10--10-10X---|
A|--8---8--8---8---8--8----8---8--8X----|
E|--------------------------------------|
                                  ^
   1)Going nowhere fast
                   D5
e|--------------------------------------|
B|--------------------------------------|
G|--------------------------------------|
D|----Rest---------12-12--12---12-12--12|
A|-----------------12-12--12---12-12--12|
E|-----------------10-10--10---10-10--10|

        1)Watching cars go past
      
    D5                     Bb5
e|-------------------------------------|
B|-------------------------------------|
G|-------------------------------------|
D|--12-12--12---12-12--12--8-8--8------|
A|--12-12--12---12-12--12--8-8--8------|
E|--10-10--10---10-10--10--6-6--6------|


      1)Why won't the snow melt faster? 
           
    Bb5                     C5
e|--------------------------------------|
B|--------------------------------------|
G|--------------------------------------|
D|--8-8--8--8-8--8--8-8--8--10-10--10---|
A|--8-8--8--8-8--8--8-8--8--10-10--10---|
E|--6-6--6--6-6--6--6-6--6--8--8---8----|

       1)This trip is a disaster 
                          F5
e|-----------------------------------------|
B|-----------------------------------------|
G|------------------------10-10--10--10-10X|
D|--10-10--10--10-10--10--10-10--10--10-10X|
A|--10-10--10--10-10--10--8--8---8---8--8X-|
E|--8--8---8---8--8---8--------------------|
                                        ^

   Verse Two:
   2)Sixteen hour drive

                   D5
e|--------------------------------------|
B|--------------------------------------|
G|--------------------------------------|
D|----Rest---------12-12--12---12-12--12|
A|-----------------12-12--12---12-12--12|
E|-----------------10-10--10---10-10--10|

     2)Just played in some dive
                           Bb5
e|-------------------------------------|
B|-------------------------------------|
G|-------------------------------------|
D|--12-12--12---12-12--12--8-8--8------|
A|--12-12--12---12-12--12--8-8--8------|
E|--10-10--10---10-10--10--6-6--6------|

           2)New York to nowhere

                            C5
e|--------------------------------------|
B|--------------------------------------|
G|--------------------------------------|
D|--8-8--8--8-8--8--8-8--8--10-10--10---|
A|--8-8--8--8-8--8--8-8--8--10-10--10---|
E|--6-6--6--6-6--6--6-6--6--8--8---8----|

        2)we're never gonna 

                         
e|-----------------------|
B|-----------------------|
G|-----------------------|
D|--10-10--10--10-10--10-|
A|--10-10--10--10-10--10-|
E|--8--8---8---8--8---8--|
                                        
    2)get there
    Rhythm Riff 2:

    F5                       C5 Bb5 
e|----------------------------------------------|
B|----------------------------------------------|
G|--10--10-10---10-10--10-10--------------------|
D|--10--10-10---10-10--10-10-10X--8-8--8--8-8--8|
A|--8---8--8----8--8---8--8--10X--8-8--8--8-8--8|
E|---------------------------8X---6-6--6--6-6--6|
    ^      ^    ^  ^         ^


       2)a million miles a- way
    Bb5                     D5
e|-----------------------------------------------|
B|-----------------------------------------------|
G|-----------------------------------------------|
D|--8-8--8--8-8--8--8-8--8--12-12--12--12-12--12-|
A|--8-8--8--8-8--8--8-8--8--12-12--12--12-12--12-|
E|--6-6--6--6-6--6--6-6--6--10-10--10--10-10--10-|


   2)ay
    C5                     
e|-----------------------|
B|-----------------------|
G|-----------------------|
D|--10-10--10--10-10--10-|
A|--10-10--10--10-10--10-|
E|--8--8---8---8--8---8--|

   2)ay                From everyone
  Bb5                    
e|-----------------------------------|
B|-----------------------------------|
G|-----------------------------------|
D|--8-8--8--8-8--8--8-8--8--8-8--8---|
A|--8-8--8--8-8--8--8-8--8--8-8--8---|
E|--6-6--6--6-6--6--6-6--6--6-6--6---|


  2)I know
    F5             
e|---------------------------------------------|
B|---------------------------------------------|
G|--10--10-10--10--10-10---10--10-10--10--10-10|
D|--10--10-10--10--10-10---10--10-10--10--10-10|
A|--8---8--8---8---8--8----8---8--8---8---8--8-|
E|---------------------------------------------|

                           2)Stuck here night and
    C5
e|---------------------------------------------|
B|---------------------------------------------|
G|---------------------------------------------|
D|--10--10-10--10--10-10---10--10-10--10--10-10|
A|--10--10-10--10--10-10---10--10-10--10--10-10|
E|--8---8--8---8---8--8----8---8--8---8---8--8-|

  2)day
  D5
e|---------------------|
B|---------------------|
G|---------------------|
D|12-12--12--12-12--12-|
A|12-12--12--12-12--12-|
E|10-10--10--10-10--10-|

   2)ay
   C5                     
e|-----------------------|
B|-----------------------|
G|-----------------------|
D|--10-10--10--10-10--10-|
A|--10-10--10--10-10--10-|
E|--8--8---8---8--8---8--|

   2)ay                with 5 more 
  Bb5                    
e|-----------------------------------|
B|-----------------------------------|
G|-----------------------------------|
D|--8-8--8--8-8--8--8-8--8--8-8--8---|
A|--8-8--8--8-8--8--8-8--8--8-8--8---|
E|--6-6--6--6-6--6--6-6--6--6-6--6---|

    2)days to go
    F5             
e|---------------------------------------------|
B|---------------------------------------------|
G|--10--10-10--10--10-10---10--10-10--10--10-10|
D|--10--10-10--10--10-10---10--10-10--10--10-10|
A|--8---8--8---8---8--8----8---8--8---8---8--8-|
E|---------------------------------------------|
                                  
  Rhythm Riff 3:
    F5     Bb5  D5    Bb5  C5   E5 F5
e|------------------------------------|
B|------------------------------------|
G|--10--10-3--3-7---7-3--3-5--5-9-10X-|
D|--10--10-3--3-7---7-3--3-5--5-9-10X-|
A|--8---8--1--1-5---5-1--1-3--3-7-8X--|
E|------------------------------------|Repeat x1
    ^      ^    ^     ^    ^    ^ ^

Repeat Verses
Repeat Lead Riff 1
End on this:
Rhythm Riff 4:
    C5                   G5  F5
e|----------------------------|
B|----------------------------|
G|--5X--5-5X--5-5--5-5---12-10|
D|--5X--5-5X--5-5--5-5---12-10|
A|--3X--3-3X--3-3--3-3---10-8-|
E|----------------------------|
    ^     ^   ^ ^    
 

************************************
| ^   Stab Chord(Staccato)
| /   slide up
| \   slide down
| h   hammer-on
| p   pull-off
| ~   vibrato
| +   harmonic
| x   Mute note
| b   Bend
| pb  Pre-bend
| br  Bend release
| pbr Pre-bend release
| brb Bend release bend

************************************
Tap to rate this tab
# A B C D E F G H I J K L M N O P Q R S T U V W X Y Z