Song name
# A B C D E F G H I J K L M N O P Q R S T U V W X Y Z

Mxpx - Where Will We Go tab

MxPx-"Where Will We Go When It's Over?"
This is the bass Tab and Guitar Tab
Tabbed By Joel Rapp
zerosg@hotmail.com


Chords Used
F# D# C# B


Intro is drums, then the guitar and bass come in with F#

INTRO:

E-2-----------------------------------------------------------|B
A-------------------------------------------------------------|A
D-------------------------------------------------------------|S
G-------------------------------------------------------------|S

E-2-----------------------------------------------------------|G
A-4-----------------------------------------------------------|U
D-4-----------------------------------------------------------|I
G-2-----------------------------------------------------------|T
B-2-----------------------------------------------------------|A
E-2-----------------------------------------------------------|R

VERSE:

E-------2--------------------------2--------------------------|B
A-6--4----4--222222222222----6--4-----4--2222222222222--44----|A
D-------------------------------------------------------------|S
G-------------------------------------------------------------|S

E-------2-----------------------------------------------------|G
A-6--4--4-4--2-(pm)--Then follow bass-------------------------|U
D-8--6--4-6--4------------------------------------------------|I
G-8--6--2-6--4------------------------------------------------|T
B-6--4--2-4--2------------------------------------------------|A
E-6--4--2-4--2------------------------------------------------|R

Chorus:

E-22222222222-------------------------------------------------|B
A-------------6666--44-22---(x2)------------------------------|A
D-------------------------------------------------------------|S
G-------------------------------------------------------------|S

E-22222222222-------------------------------------------------|G
A-44444444444-6666--44-22---(x2)------------------------------|U
D-44444444444-8888--66-44-------------------------------------|I
G-22222222222-8888--66-44-------------------------------------|T
B-22222222222-6666--44-22-------------------------------------|A
E-22222222222-6666--44-22-------------------------------------|R


Post Chorus is F# agian just like the intro only you hit it once at the end.

Repeat Verse (without C# at the very end go from B to F#)

Bridge:
E-22222222--------22222222-------------------------------------|B
A---------22222222--------22222222---bass solo-----------------|A
D--------------------------------------------------------------|S
G--------------------------------------------------------------|S

E-2222222----------22222222------------------------------------|G
A-4444444-22222222-44444444-22222222-44444444------------------|U
D-4444444-44444444-44444444-44444444-66666666------------------|I
G-2222222-44444444-22222222-44444444-66666666------------------|T
B-2222222-22222222-22222222-22222222-44444444------------------|A
E-2222222-22222222-22222222-22222222-44444444------------------|R


Bass Solo:

E------------------------------------------|B
A44-66----------------66-44-66----------4--|A
D------44-66----66-44----------44-66-4-----|S
G------------66----------------------------|S

Repeat Chorus (x2)

F#

D#   C#          F#    C#       B(pm)
It's been awhile but I remember that time long ago
D#   C#          F#    C#       B(pm)                  C#C#
the only worry that we had was getting our next show

F#
where will we go when it's over?
D#           C#      B
what will we do when we're through? (x2)

same as before
I'm goona settle down in my small town and start to fade away
all we'll have are memories of days just like today

F#               B                F#               B                C#
just like today, just like today, just like today, just like today, just like today
Tap to rate this tab
# A B C D E F G H I J K L M N O P Q R S T U V W X Y Z