Song name
# A B C D E F G H I J K L M N O P Q R S T U V W X Y Z

Mxpx - Kings Of Hollywood tab

-------------------------------------------------------------------------------
			     Kings of Hollywood - MXPX
-------------------------------------------------------------------------------
Tabbed by: Conley	

Tuning: standard

hey this is the first song i ever tabbed and i'm pretty sure it's right.  the chorus is
the only part i'm wondering about 
but i think it's pretty much correct. have fun.

Intro

e|--------4-6----------4-6------------4-6-7-6-4----------4-6-7-6-4--|
B|-6-4-6-------6-4-6----------6-4-6---------------6-4-6-------------|
G|------------------------------------------------------------------|
D|------------------------------------------------------------------|
A|------------------------------------------------------------------|
E|------------------------------------------------------------------|

Verse (pretty sure)
e|----1----1---1----1-0---0-----------------------------------------|
B|-1----1---1----1------3---3---------------------------------------|
G|------------------------------------------------------------------|
D|------------------------------------------------------------------|
A|------------------------------------------------------------------|
E|------------------------------------------------------------------|

Chorus *play each 8 times. listen to song for rhythm
e|------------------------------------------------------------------|
B|------------------------------------------------------------------|
G|-10---3---7---3--5------------------------------------------------|
D|-10---3---7---3--5------------------------------------------------|
A|-8----1---5---1--3-----------------------------------------------|
E|------------------------------------------------------------------|

Bridge: i think it's the same thing as the chorus.

Ok i think that's pretty good. if u hate it PM me, i'm travel sized. it's a real easy song
Tap to rate this tab
# A B C D E F G H I J K L M N O P Q R S T U V W X Y Z