Song name
# A B C D E F G H I J K L M N O P Q R S T U V W X Y Z

Mxpx - Heard That Sound tab

It took me a little while to figure it out.  |
Even longer to tab it all out.               |
I hope you appreciate it.                    |
Enjoy!                                       |
=============================================
LEGEND ->
o = mute
* = pick slide
/ = slide up
\ = slide down
h = hammer-on

=================================================================
INTRO                                                            |
=================================================================
>/Guitar-ONE-> 0:00
e|------------|------------|------------|------------\
B|------------|------------|------------|-------------\
G|------------|6-66666-----|8-88888-----|--------------\play
D|4-44444-----|6-66666-}x2-|8-88888-}x2-|9-99999-------/twice
A|4-44444-}x4-|4-44444-----|6-66666-----|9-99999-}x2--/
E|2-22222-----|------------|------------|7-77777-----/

>/Guitar-TWO-> 0:12
e|---|---|---|----|
B|---|---|---|----|
G|---|6~-|8~-|----|
D|4~-|6~-|8~-|9~--|
A|4~-|4~-|6~-|9~--|
E|2~-|---|---|7~-*|
=================================================================
PREVERSE                                                         |
=================================================================
>/Guitar-ONE-> 0:22
e|-------|-------|-------|-------|
B|-------|-------|-------|-------|
G|-------|6------|8------|-------|
D|4------|6-}x16-|8-}x16-|9------|
A|4-}x16-|4------|6------|9-}x16-|
E|2------|-------|-------|7------|

>/Guitar-TWO-> 0:22
e|---------|-------------|---------|------------|
B|---7-----|---7---------|---7-----|-7-7-6-6-7~-|
G|6h8-10-6-|6h8-10-6/8\6-|6h8-10-6-|8-8-6-6-6~~-|
D|---------|-------------|---------|------------|
A|---------|-------------|---------|------------|
E|---------|-------------|---------|------------|
=================================================================
VERSE 1                                                          |
=================================================================
>/Guitar ONE-> 0:33
e|-------|-------|-------|-------|
B|-------|-------|-------|-------|
G|-------|6------|8------|-------|
D|4------|6-}x16-|8-}x16-|9------|
A|4-}x16-|4------|6------|9-}x16-|
E|2------|-------|-------|7------|
  o       o       o       o
>/Continued..-> 0:42
e|-|--------|-------|-------|--------|
B|-|--------|-------|-------|--------|
G|-|--------|6------|8------|--------|
D|4|-4------|6-}x16-|8-}x16-|9-9-9-9-|
A|4|-4-}x16-|4------|6------|9-9-9-9-|
E|2|-2------|-------|-------|7-7-7-7-|
     o       o       o
=================================================================
CHORUS 1                                                         |
=================================================================
>/Guitar-ONE-> 0:52
e|-------|-------|-------|-------\
B|-------|-------|-------|--------\
G|-------|6------|8------|---------\play
D|4------|6-}x16-|8-}x16-|9--------/twice
A|4-}x16-|4------|6------|9-}x16--/
E|2------|-------|-------|7------/

>/Guitar-TWO-> 0:52
e|----|----|----|---\
B|----|----|----|----\
G|----|6~-6|8~-8|-----\play
D|4~-4|----|----|9~---/twice
A|----|----|----|----/
E|----|----|----|---/

>/Guitar-THREE------<\
e|0:57-----|1:07-----|
B|---------|----6-4~-|
G|---4-6---|---4-----|
D|6-8------|6-8------|
A|---------|---------|
E|------7~-|---------|
=================================================================
POSTCHORUS                                                       |
=================================================================
>/Guitar-ONE-> 1:13
e|-------|-------|-------|-------|
B|-------|-------|-------|-------|
G|-------|6------|8------|-------|
D|4------|6-}x16-|8-}x16-|9------|
A|4-}x16-|4------|6------|9-}x16-|
E|2------|-------|-------|7------|

>/Guitar-TWO-> 1:13
e|---------|-------------|---------|------------|
B|---7-----|---7---------|---7-----|-7-7-6-6-7~-|
G|6h8-10-6-|6h8-10-6/8\6-|6h8-10-6-|8-8-6-6-6~~-|
D|---------|-------------|---------|------------|
A|---------|-------------|---------|------------|
E|---------|-------------|---------|------------|
=================================================================
PRE CHORUS                                                       |
=================================================================
>/Guitar-ONE-> 1:32
e|---|--------|--------|--------|--------|
B|---|--------|--------|--------|--------|
G|---|--------|66-6----|88-8----|--------|
D|4-4|44-4----|66-6-}x4|88-8-}x4|9-9-9-9-|
A|4-4|44-4-}x3|44-4----|66-6----|9-9-9-9-|
E|2-2|22-2----|--------|--------|7-7-7-7-|
      oo       oo       oo
=================================================================
CHORUS 2                                                         |
=================================================================
>/Guitar-ONE-> 1:42
e|-------|-------|-------|-------\
B|-------|-------|-------|--------\
G|-------|6------|8------|---------\play
D|4------|6-}x16-|8-}x16-|9--------/twice
A|4-}x16-|4------|6------|9-}x16--/
E|2------|-------|-------|7------/

>/Guitar-TWO-> 1:42
e|----|----|----|---\
B|----|----|----|----\
G|----|6~-6|8~-8|-----\play
D|4~-4|----|----|9~---/twice
A|----|----|----|----/
E|----|----|----|---/

>/Guitar-THREE------<\
e|1:47-----|1:57-----|
B|---------|----6-4~-|
G|---4-6---|---4-----|
D|6-8------|6-8------|
A|---------|---------|
E|------7~-|---------|
=================================================================
SOLO                                                             |
=================================================================
>/Guitar-ONE-> 2:02
e|-------------|---------------|------|------|------|------|
B|-------------|---------------|------|------|------|------|
G|9-11-11-9-11-|11-13-13-11-13-|9-----|11----|13----|11----|
D|-------------|---------------|--}x8-|--}x8-|--}x8-|--}x8-|
A|9-9--9--9-9--|11-11-11-11-11-|9-----|9-----|11----|9-----|
E|-------------|---------------|------|------|------|------|

>/Continued..-> 2:13
e|------------------\
B|-------------------\
G|--------------------\play
D|----4-6~-8-9--------/twice
A|6~-8---------------/
E|------------7~-7~-/

>/Continued..-> 2:31
e|--|
B|--|
G|--|
D|--|
A|--|
E|*-|

>/Continued..-> 2:32
e|-------|-------|-------|-------|
B|-------|-------|-------|-------|
G|-------|6------|8------|-------|
D|4------|6-}x16-|8-}x16-|9------|
A|4-}x16-|4------|6------|9-}x16-|
E|2------|-------|-------|7------|

>/Guitar TWO<\
e|2:35--------|2:40--------|2:45--------|2:50--------|
B|------------|------------|------------|------------|
G|8-6-4-8-6---|8-6-4-8-6---|8-6-4-8-6---|8-6-4-8-6---|
D|------------|------------|------------|------------|
A|6-4-2-6-4---|6-4-2-6-4---|6-4-2-6-4---|6-4-2-6-4---|
E|------------|------------|------------|------------|
=================================================================
CHORUS 2                                                         |
=================================================================
>/Guitar-ONE-> 2:52
e|-------|-------|-------|-------\
B|-------|-------|-------|--------\
G|-------|6------|8------|---------\play
D|4------|6-}x16-|8-}x16-|9--------/twice
A|4-}x16-|4------|6------|9-}x16--/
E|2------|-------|-------|7------/

>/Guitar-TWO-> 2:52
e|----|----|----|---\
B|----|----|----|----\
G|----|6~-6|8~-8|-----\play
D|4~-4|----|----|9~---/twice
A|----|----|----|----/
E|----|----|----|---/

>/Guitar-THREE------<\
e|2:57-----|3:07-----|
B|---------|----6-4~-|
G|---4-6---|---4-----|
D|6-8------|6-8------|
A|---------|---------|
E|------7~-|---------|
=================================================================
OUTRO                                                            |
=================================================================
>/Guitar-ONE-> 3:12
e|-------|-------|-------|-------|
B|-------|-------|-------|-------|
G|-------|6------|8------|-------|
D|4------|6-}x16-|8-}x16-|9------|
A|4-}x16-|4------|6------|9-}x16-|
E|2------|-------|-------|7------|

>/Guitar-TWO-> 3:12
e|---------|-------------|---------|------------|
B|---7-----|---7---------|---7-----|-7-7-6-6-7~-|
G|6h8-10-6-|6h8-10-6/8\6-|6h8-10-6-|8-8-6-6-6~~-|
D|---------|-------------|---------|------------|
A|---------|-------------|---------|------------|
E|---------|-------------|---------|------------|

>/Guitar-THREE-> 3:17
e|---------|
B|---------|
G|---------|
D|---4-6---|
A|8-6------|
E|------7~-|
Tap to rate this tab
# A B C D E F G H I J K L M N O P Q R S T U V W X Y Z