Song name
# A B C D E F G H I J K L M N O P Q R S T U V W X Y Z

Mxpx - Grey Skies Turn Blue tab

intro/introduccion:

e----------------------|   play it 7 times
b----4---5---7---5-----|   tocar 7 veces
g--4---4---4---4---4---|
d----------------------|
a----------------------|
E----------------------|


verse/estrofa:

e-----------------------------------------------|    dont play the strings as
b-----------------------------------------------|    many times it say, just
g-----------------------------------------------|    try to go with the song
d--44444444----------------------22222222-------|    with these chords/trata
a--22222222--66666666--44444444--22222222-------|    de seguir la cancion
E------------44444444--22222222--00000000-------|    con estos acordes.


chorus/coro:
when grey skies turn blue...
e----------------------------------------------|    twice
b----------------------------------------------|    2 veces
g----------------------------------------------|
d--444------------222------------222222--------|
a--222--666--444--222--666--444--222222--------|
E-------444--222--000--444--222--000000--------|

after 2nd chorus/despues del 2gundo coro:

e----------------------------------------------|     twice
b----------------------------------------------|     2 veces
g----------------------------------------------|
d--4--2--444--222-------222--------------------|
a--2--2--222--000--666--222--------------------|
E-----0------------444--000--------------------|

enjoy it dudes!!!!!!!!!!!!!!
Tap to rate this tab
 
# A B C D E F G H I J K L M N O P Q R S T U V W X Y Z