Song name
# A B C D E F G H I J K L M N O P Q R S T U V W X Y Z

Mxpx - On The Outs tab

----------------------------------------------------------------------------
			     On the outs - mxpx
----------------------------------------------------------------------------
Tabbed by:nofxmike
Email:mike_Reed05@hotmail.com

This is the entire song; beginning to end. enjoy!

Tuning:EADgbe

Refrain:light distortion

      On the Outs When she don't like you anymore
e|----------------------------------------------|
B|----------------------------------------------|
G|-----9----------------------------------------|
D|-----9-----------------------------------7----|
A|-----7-----------------------------------7----|
E|-----------------------------------------5----|
       PM                                 PM
     


      ON the Outs Your picture's shattered on the floor 
e|----------------------------------------------|
B|----------------------------------------------|
G|-----------------------------------------4----|
D|-----4-----------------------------------4----|
A|-----4-----------------------------------2----|
E|-----2----------------------------------------|
       PM                                  PM


 ON the Outs Your clothes are scattered out the door
e|----------------------------------------------|
B|----------------------------------------------|
G|-----------------------------------------6----|
D|-----6-----------------------------------6----|
A|-----6-----------------------------------4----|
E|-----4----------------------------------------|
       PM                                 PM

 On the Out when things just don't seem like before
e|----------------------------------------------|
B|----------------------------------------------|
G|-----------------------------------------4----|
D|-----4-----------------------------------4----|
A|-----4-----------------------------------2----|
E|-----2----------------------------------------|
       PM                                  PM---|

Bridge:let ring throughout

So you Wanna get her back now
e|----------------------------------------------|
B|----------------------------------------------|
G|-----9----------------------------------------|
D|-----9----------------------------------------|
A|-----7----------------------------------------|
E|-----0----------------------------------------|


 and you don't really know how
e|----------------------------------------------|
B|----------------------------------------------|
G|-----6----------------------------------------|
D|-----7----------------------------------------|
A|-----7----------------------------------------|
E|-----5----------------------------------------|



 you tried everything and nothing's work-eee-ing
e|----------------------------------------------|
B|----------------------------------------------|
G|-----8------------6------8--------9-----------|
D|-----9------------7------9--------9-----------|
A|-----9------------7------9--------7-----------|
E|-----7------------5------7--------0-----------|

Bridge #2:

  What would be your first clue
e|----------------------------------------------|
B|----------------------------------------------|
G|-----9----------------------------------------|
D|-----9----------------------------------------|
A|-----7----------------------------------------|
E|-----0----------------------------------------|


 that she don't really like you?
e|----------------------------------------------|
B|----------------------------------------------|
G|-----6----------------------------------------|
D|-----7----------------------------------------|
A|-----7----------------------------------------|
E|-----5----------------------------------------|



 Was it the way she never had much to say-ay?
e|----------------------------------------------|
B|----------------------------------------------|
G|-----8------------6------8--------9-----------|
D|-----9------------7------9--------9-----------|
A|-----9------------7------9--------7-----------|
E|-----7------------5------7--------0-----------|

Refrain #2:

       On the Outs When she don't like you anymore
e|------------------------------------------------|
B|------------------------------------------------|
G|------------------------------------------------|
D|------------6-----6----9----9----9----6-----6---|
A|------7--9-------------------------------9-----7|
E|------------------------------------------------|
     guitar 2 fill  1                               
     


  ON the Outs Your picture's shattered on the floor 
e|----------------------------------------------|
B|----------------------------------------------|
G|-------------------6-----6-----6--------------|
D|--4--6--7-----7--------------------7--6--7--4-|
A|----------------------------------------------|
E|----------------------------------------------|
       


 ON the Outs          Your clothes  are scattered out the door
                  .           .          .         .         .
e|----------------4-----------4----------4---------4---------4-|
B|----------------4-----------4----------4---------4---------5-|
G|-------------------------------------------------------6-6---|
D|--6--7---9--6-6--------6-6-------6-6-------6-6---------6-6---|
A|------------6-6--------6-6-------6-6-------6-6---------4-4---|
E|------------4-4--------4-4-------4-4-------4-4---------------|
            PM---|     PM---|    PM---|    PM---|

             Rhythm guitar                          





   On the Out when things just don't seem like before-ore
          .         .          .
e|--------2---------2----------2----2-2-------------------|
B|--------2---------2----------2----2-2-------------------|
G|----------------------------------2-2----4-4-4-4-4-4-4-4|
D|---4-4-----4-4---------4-4--------4-4----4-4-4-4-4-4-4-4|
A|---4-4-----4-4---------4-4--------4-4----2-2-2-2-2-2-2-2|
E|---2-2-----2-2---------2-2--------2-2-------------------|
   PM---|  PM---|      PM---|     PM---|   let ring           


Bridge#1:

      do you need a sample            or maybe
e|----------------------------------------------|
B|----------------------------------------------|
G|-----9----------------------------------------|
D|-----9----------------------------------------|
A|-----7----------------------------------------|
E|-----0----------------------------------------|


   an Example
e|----------------------------------------------|
B|----------------------------------------------|
G|-----6----------------------------------------|
D|-----7----------------------------------------|
A|-----7----------------------------------------|
E|-----5----------------------------------------|



 of real love and forgiveness to get over this
e|----------------------------------------------|
B|----------------------------------------------|
G|-----8------------6------8--------9-----------|
D|-----9------------7------9--------9-----------|
A|-----9------------7------9--------7-----------|
E|-----7------------5------7--------0-----------|






e|----------------x-|
B|----------------x-|
G|------9-9-9-9-9-x-|
D|------9-9-9-9-9-x-|
A|------7-7-7-7-7-x-|
E|------0-0-0-0-0-x-|

                .(stab E chord)


Bridge #2:

  So   take a little time out
e|----------------------------------------------|
B|----------------------------------------------|
G|-----9----------------------------------------|
D|-----9----------------------------------------|
A|-----7----------------------------------------|
E|-----0----------------------------------------|

   and learn that you can live without
e|----------------------------------------------|
B|----------------------------------------------|
G|-----6----------------------------------------|
D|-----7----------------------------------------|
A|-----7----------------------------------------|
E|-----5----------------------------------------|



 a dead-end girlfriend that you put all your faith in-in
e|----------------------------------------------|
B|----------------------------------------------|
G|-----8------------6------8--------9-----------|
D|-----9------------7------9--------9-----------|
A|-----9------------7------9--------7-----------|
E|-----7------------5------7--------0-----------|


e|-----------------|
B|-----------------|
G|------9-9-9-9-9--|
D|------9-9-9-9-9--|
A|------7-7-7-7-7--|
E|------0-0-0-0-0--|


            Man-  ip-    u-   la-   tions        Cut   your
e|----------------4-----------4----------4---------4---------4-|
B|----------------4-----------4----------4---------4---------5-|
G|-------------------------------------------------------6-6---|
D|------------6-6--------6-6-------6-6-------6-6---------6-6---|
A|------------6-6--------6-6-------6-6-------6-6---------4-4---|
E|------------4-4--------4-4-------4-4-------4-4---------------|
            PM---|     PM---|    PM---|    PM---|      PM---|

   throat and now there's blood stains on your coat
e|--------2---------2----------2--------------------------|
B|--------2---------2----------2--------------------------|
G|----------------------------------5-5----4-4-4-4-4-4-4-4|
D|---4-4-----4-4---------4-4--------4-4----4-4-4-4-4-4-4-4|
A|---4-4-----4-4---------4-4--------4-4----2-2-2-2-2-2-2-2|
E|---2-2-----2-2---------2-2--------2-2-------------------|
   PM---|  PM---|      PM---|     PM---|   let ring          


 

      shove-own!
e|-----------------|
B|-----------------|
G|------x-x-x-x-x--|
D|------x-x-x-x-x--|
A|------x-x-x-x-x--|
E|------x-x-x-x-x--|(drums only here)

  solo(also known as fill 2):

LET GO!
e|------------------------------------------|
B|------------------------------------------|
G|------------------------------------------|
D|---6-6-6--------------7-7-7---6-6---------|
A|---------9-9---7-7------------------9-9---|
E|------------------------------------------|


                                COME ON! 
e|------------------------------------------|
B|------------------------------------------|
G|------------------------6----------6------|
D|----9-9-9---7-7--6-7-9-----9--7--6--9-7-6-|
A|------------------------------------------|
E|------------------------------------------|x2(repeat)



    C#   B                C#   B
e|------------------------------------------|
B|------------------------------------------|
G|---6----------6----/9\---6----------------|
D|-------9--9-------------------9--9--------|
A|------------------------------------------|
E|------------------------------------------|
                                Let ring...




Refrain:

      On the Outs When she don't like you anymore
e|----------------------------------------------|
B|----------------------------------------------|
G|-----------------------------------------2----|
D|-----2-----------------------------------2----|
A|-----2-----------------------------------0----|
E|-----0-----------------------------------0----|
       let ring throughout
     


      ON the Outs Your picture's shattered on the floor 
e|-----------------------------------------------|
B|-----------------------------------------------|
G|-----------------------------------------4---2-|
D|-----4-----------------------------------4---2-|
A|-----4-----------------------------------2---0-|
E|-----2-----------------------------------0---0-|
                                         
 

   ON the Outs     Your clothes are scattered out the door


e|---------4-------------4------------------4-------|
B|-------------4------------4-------------------5---|
G|-2----------------4----------4--------6-6-6-6-6-6-|
D|-2----6-6-6-6-6-6-6-6-6-6-6-6-6-6-6-6-6-6-6-6-6-6-|
A|-0----6-6-6-6-6-6-6-6-6-6-6-6-6-6-6-6-4-4-4-4-4-4-|
E|-0----4-4-4-4-4-4-4-4-4-4-4-4-4-4-4-4-------------|
            ^       ^       ^       ^       



Rhythm guitar rocks it throughout 
(lead sprinkles the arpeggios on top three lines throughout)


 On the Out when things just don't seem like before
e|-----4----------------------------5-----------------|
B|---------4-----------------------------4------------|
G|-------------4---------------------------4-4-4-4-4-4|
D|-----4-4-4-4-4-4-4-4-4-4-4-4-4-4-4-4-4-4-4-4-4-4-4-4|
A|-----4-4-4-4-4-4-4-4-4-4-4-4-4-4-4-4-4-4-2-2-2-2-2-2|
E|-----2-2-2-2-2-2-2-2-2-2-2-2-2-2-2-2-2-2------------|






OUTRO:

PHRASE ONE--



ON the Outs!              On the Outs!
           (is it over?)

Played with fill 2
guitar 1:
e|------------------------------------------|
B|------------------------------------------|
G|-----------2---------3--------4-----------|
D|---2-------2---------4--------4-----------|
A|---2-------0---------4--------2-----------|
E|---0-------0---------2--------------------|

Guitar 2:(fill 2)
e|------------------------------------------|
B|------------------------------------------|
G|------------------------------------------|
D|---6-6-6--------------7-7-7---6-6---------|
A|---------9-9---7-7------------------9-9---|
E|------------------------------------------|  




PHRASE TWO--

                ON THE OUTS!!!
Guitar 1:
e|------------------------------------------|
B|------------------------------------------|
G|-----------6---------3--------4-----------|
D|---6-------6---------4--------4-----------|
A|---6-------4---------4--------2-----------|
E|---4-----------------2--------------------|

guitar 2:(fill 2)
e|------------------------------------------|
B|------------------------------------------|
G|------------------------6----------6------|
D|----9-9-9---7-7--6-7-9-----9--7--6--9-7-6-|
A|------------------------------------------|
E|------------------------------------------|



 GUITARs 1 and 2 to end:

Guitar 1:
e|------------------------------------------|
B|------------------------------------------|
G|---6---4--4--------------6----4--4--------|
D|---6---4--4--------------6----4--4--------|
A|---4---2--2--------------4----2--2--------|
E|------------------------------------------|



Guitar 2:
  C#   B                C#   B
e|------------------------------------------|
B|------------------------------------------|
G|---6----------6----/9\---6----------------|
D|-------9--9-------------------9--9--------|
A|------------------------------------------|
E|------------------------------------------|
                                Let ring...


ENDING FILL

e|----------------------------------------|
B|----------------------------------------|
G|----------------------------------------|
D|----------------------------------------|
A|-2--2--2--2--2--2--7--7--7--6--6--6--4--|
E|-0--0--0--0--0--0--5--5--5--4--4--4--2--|x2(let ring)END on TONIC (E)


| /  slide up
| \  slide down
| h  hammer-on
| p  pull-off
| ~  vibrato
| +  harmonic
| x  Mute note
===============================================================================
Tap to rate this tab
 
# A B C D E F G H I J K L M N O P Q R S T U V W X Y Z