Song name
# A B C D E F G H I J K L M N O P Q R S T U V W X Y Z

Mxpx - Late Again tab

This is a solo ive been wanting learn but no one has it tabbed or anything so i
jus tabbed this out myself...i think its about 95% right but there are a few
errors i bet. enjoy.

Tabbed by Robbie Willis

Standard Tuning 
e|------------------------------------------------------------|
b|-15b---15-12-15-15-15-15-12-----12--15----------------------|
g|-14b14b--------------------14-14--14---14p12--12--14p12--12-|
d|--------------------------------------------14---------14---|
a|------------------------------------------------------------|
E|------------------------------------------------------------|

e|-----------------12-15b-15-12--15p12--12-15p12--12--|
b|-----12-15-12h15--------------------15--------15----|
g|12h14-----------------------------------------------|
d|----------------------------------------------------|
a|----------------------------------------------------|
E|----------------------------------------------------|

e|-------------------------------------------|
b|-15b15b15b15b-12--15-12---15---------------|
g|----------------14-----14-14b14b14b14b14b--|
d|-------------------------------------------|
a|-------------------------------------------|
E|-------------------------------------------|

thats the whole solo at about 1:35 in the song...sorry if it sucks...
Tap to rate this tab
# A B C D E F G H I J K L M N O P Q R S T U V W X Y Z