Song name
# A B C D E F G H I J K L M N O P Q R S T U V W X Y Z

Mxpx - You Walk I Run tab

-----------------------------------------------------------------
You Walk, I Run - MXPX
-----------------------------------------------------------------
Tabbed by: Bair
Email: bair_morritt@hotmail.com
Tuning: Standard

Intro/ Main Riff:
e|---------------------------------------------------------------|
B|---------------------------------------------------------------|
G|---------------------------------------------------------------|
D|---------------------------------------------------------------|
A|--5-0-7-5-4----------------------------------------------------|
E|---------------------------------------------------------------|

Verse
e|---------------------------------------------------------------|
B|---------------------------------------------------------------|
G|-7-7777--------------7-7777--------------77--------------------|
D|-7-7777-(X3)-7-7777--7-7777-(X3)-7-7777--77--77--55------------|
A|-5-5555------7-7777--5-5555------7-7777--55--77--55------------|
E|-------------5-5555--------------5-5555------55--33------------|

Chorus/ Bridge:
e|---------------------------------------------------------------|
B|---------------------------------------------------------------|
G|-7777----------------------------------------------------------|
D|-7777--4444--5555--7777----------------------------------------|
A|-5555--4444--5555--7777----------------------------------------|
E|-------2222--3333--5555----------------------------------------|
  |........................P.M.............................|

God I love MXPX, 10 minutes to tab every song lol :)
Tap to rate this tab
 
# A B C D E F G H I J K L M N O P Q R S T U V W X Y Z