Song name
# A B C D E F G H I J K L M N O P Q R S T U V W X Y Z

Mxpx - Every Light tab

-----------------------------------------------------------------
Every Light - MXPX 
-----------------------------------------------------------------
Tabbed by: Bair
Email: bair_morritt@hotmail.com
Tuning: Standard

Intro/ Main Riff:
e|---------------------------------------------------------------|
B|---------------------------------------------------------------|
G|-77------999--77-----------------------------------------------|
D|-77--77--999--77-----------------------------------------------|
A|-55--77--777--55-----------------------------------------------|
E|-----55--------------------------------------------------------|

Verse:
e|---------------------------------------------------------------| 
B|---------------------------------------------------------------|
G|-77777777-77------999--77--4-444-------------------------------|
D|-77777777-77--77--999--77--4-444--7-777--5-555555--(X2)--------|
A|-55555555-55--77--777--55--2-222--7-777--5-555555--------------|
E|--------------55------------------5-555--3-333333--------------|

Pre- Chorus:
e|---------------------------------------------------------------|
B|---------------------------------------------------------------|
G|---------------77777777----------------------------------------|
D|-33-33--55-55--77777777--999999--777777--555555----------------|
A|-33-33--55-55--55555555--999999--777777--555555----------------|
E|-11-11--33-33------------777777--555555--333333----------------|

Chorus:
e|---------------------------------------------------------------|
B|---------------------------------------------------------------|
G|--777777-------------------------------------------------------|
D|--777777--777777--555555--(X2)---------------------------------|
A|--555555--777777--555555---------------------------------------|
E|----------555555--333333---------------------------------------|

Bridge:
e|---------------------------------------------------------------|
B|---------------------------------------------------------------|
G|---------------------------------------------------------------|
D|--99999999--77777777--55555555--(X2)---------------------------|
A|--99999999--77777777--55555555---------------------------------|
E|--77777777--55555555--33333333---------------------------------|

e|---------------------------------------------------------------|
B|---------------------------------------------------------------|
G|-777777--------------------------------------------------------|
D|-777777--777777--999999--555555--77--(X2)----------------------|
A|-555555--777777--999999--555555--77----------------------------|
E|---------555555--777777--333333--55----------------------------|
Tap to rate this tab
# A B C D E F G H I J K L M N O P Q R S T U V W X Y Z