Song name
# A B C D E F G H I J K L M N O P Q R S T U V W X Y Z

Mxpx - Dont Forget Me When Youre Gone tab

-----------------------------------------------------------------
Don't Forget Me (When You're Gone) - MXPX
-----------------------------------------------------------------
Tabbed by: Bair
Email: bair_morritt@hotmail.com
Tuning: Standard

Verse:
e|---------------------------------------------------------------|
B|---------------------------------------------------------------|
G|--------7--7------------------66666666-------------------------|
D|--7--7--7--7--(X4)--44444444--66666666--7----------------------|
A|--7--7--5--4--------44444444--44444444--7--(X2)---(Hold)-------|
E|--5--4--------------22222222------------5----------------------|
"No I'm not bad about you...."

Chorus:
e|---------------------------------------------------------------|
B|---------------------------------------------------------------|
G|------------77777777-------------------------------------------|
D|--99999999--77777777--77777777-77--(X2)------------------------|
A|--99999999--55555555--77777777-77------------------------------|
E|--77777777------------55555555-55------------------------------|
"My heart still hurts...."

Bridge:
e|---------------------------------------------------------------|
B|---------------------------------------------------------------|
G|----------------------77777777--99999999-----------------------|
D|--66666666--77777777--77777777--99999999--(X2)-----------------|
A|--66666666--77777777--55555555--77777777-----------------------|
E|--44444444--55555555-------------------------------------------|
"There is something in your eyes...."
Tap to rate this tab
# A B C D E F G H I J K L M N O P Q R S T U V W X Y Z