Song name
# A B C D E F G H I J K L M N O P Q R S T U V W X Y Z

Mxpx - Christmas Only Comes Once A Year tab

-----------------------------------------------------------------
Christmas Only Comes Once A Year - MXPX
-----------------------------------------------------------------
Tabbed by: Bair
Email: bair_morritt@hotmail.com
Tuning: Standard

Intro:
e|------------------------------------------------------------------|
B|------------------------------------------------------------------|
G|-----------------------------5------------------------------------|
D|--5--------2--------3--------5------------------------------------|
A|--5--------2--------3--------3------------------------------------|
E|--3--------0--------1---------------------------------------------|

Verse:
e|---------------------------------------------------------------|
B|---------------------------------------------------------------|
G|--------------------------------55555555-----------------------|
D|--55555555--22222222--33333333--55555555--(X4)-----------------|
A|--55555555--22222222--33333333--33333333-----------------------|
E|--33333333--00000000--11111111---------------------------------|

Chorus:
e|---------------------------------------------------------------|
B|---------------------------------------------------------------|
G|------------77777777------------55555555-----------------------|
D|--22222222--77777777--55555555--55555555--(X2)-----------------|
A|--22222222--55555555--55555555--33333333-----------------------|
E|--00000000------------33333333---------------------------------|

e|---------------------------------------------------------------|
B|---------------------------------------------------------------|
G|------------77777777----------------5555-----------------------|
D|--22222222--77777777--555555555555--5555-----------------------|
A|--22222222--55555555--555555555555--3333-----------------------|
E|--00000000------------333333333333-----------------------------|

Outro:
e|---------------------------------------------------------------|
B|---------------------------------------------------------------|
G|--------7777--------7777---------------------------------------|
D|--2222--7777--2222--7777--2222--3--4--5------------------------|
A|--2222--5555--2222--5555--2222--3--4--5------------------------|
E|--0000--------0000--------0000--1--2--3------------------------|

I figured someone might want this song around this time of year
Tap to rate this tab
# A B C D E F G H I J K L M N O P Q R S T U V W X Y Z