Song name
# A B C D E F G H I J K L M N O P Q R S T U V W X Y Z

Mxpx - Last Train Acoustic tab

-----------------------------------------------------------------
Last Train (Acoustic) - MXPX
-----------------------------------------------------------------
Tabbed by: Bair
Email: bair_morritt@hotmail.com
Tuning: Standard

Intro:
e|---------------------------------------------------------------|
B|---------------------------------------------------------------|
G|--77-77--------------------555-555-55X-------------------------|
D|--77-77--555-555-55X--333--555-555-55X--(X2)-------------------|
A|--55-55--555-555-55X--333--333-333-33X-------------------------|
E|---------333-333-33X--111--------------------------------------|

Verse:
e|---------------------------------------------------------------|
B|---------------------------------------------------------------|
G|----------------------555-5555---------------------------------|
D|--555-555-5555--3333--555-5555--(X4)---------------------------|
A|--555-555-5555--3333--333-3333---------------------------------|
E|--333-333-3333--1111-------------------------------------------|
"When bones start breaking...."

Chorus:
e|---------------------------------------------------------------|
B|---------------------------------------------------------------|
G|--7777--------5555----------------7777--55555555---------------|
D|--7777--2222--5555--5555-55-2222--7777--55555555---------------|
A|--5555--2222--3333--5555-55-2222--5555--33333333---------------|
E|--------0000--------3333-22-0000-------------------------------|
"I'm on the last train heading no where...."

Bridge:
e|---------------------------------------------------------------|
B|---------------------------------------------------------------|
G|--77-77--99-99--55-55-55-55------------------------------------|
D|--77-77--99-99--55-55-55-55--(X2)------------------------------|
A|--55-55--77-77--33-33-33-33------------------------------------|
E|---------------------------------------------------------------|
"Each new day is better than...."


No one seems to be too interested in tabbing the Let's Rock album
Strange.
Tap to rate this tab
# A B C D E F G H I J K L M N O P Q R S T U V W X Y Z