Song name
# A B C D E F G H I J K L M N O P Q R S T U V W X Y Z

Mxpx - Role Remodeling tab

Hey Itried to figure out this song and this is what I got

Standard Tuning

intro

|----------------------------------|
|----------------------------------|
|----------------------------------|
|----7-7--7-9-5-7----3-3---5-5-----|
|----7-7--7-9-5-7----3-3---5-5-----|
|----5-5--5/7-3/5----1-1---3-3-----| repeat

break
|-----------------------------------|
|-----------------------------------|
|-----------------------------------|
|-----------------------------------|
|------------7--5--3----------------|
|---7--5--3-----------3----5--------|

verse
|------------R-------------------------|play this right before the chorus
|------------E-------------------------|
|------5--7--P----5--7--9--------------|
|--7---5--7--E----5--7--9--------------|let ring
|--7---3--5--A----3--5--7--------------|
|--5---------T-------------------------|
 p.m. ..............

chorus
|-------------------------------------|
|-------------------------------------|
|-----------------------------9-------|
|--7--3-5---5--3-5---5--3-5--9--------|
|--7--3-5---5--3-5---5--3-5--7--------|
|--5--1-3---7--1-3---7--1-3-----------|

break
|---7p5-5h7-7p5-5h7-7p5-5h7-7p5-5h7--5p3-3h5-5p3-3h5-5p3-3h5-5p3-3h5  then add this after the second time at the end on the high e string ---7--|b
|-----------------------------------------------------------------------------------------------------------------------------------------------|
|----------------------------------------------------------------------- repeat-----------------------------------------------------------------| 2x
|-----------------------------------------------------------------------------------------------------------------------------------------------|
|-----------------------------------------------------------------------------------------------------------------------------------------------|
|-----------------------------------------------------------------------------------------------------------------------------------------------|

There I hope I got it all boy that took awhile! Please make corrections and comments! I 
tried to figure this out bcuz no one else had it submitted. Have fun! God Bless!
Kuldin age 14
Tap to rate this tab
# A B C D E F G H I J K L M N O P Q R S T U V W X Y Z