Guitaretab - guitar tabs
Song name
# A B C D E F G H I J K L M N O P Q R S T U V W X Y Z

Mxpx - Secret Weapon tab

Song: Secret Weapon
Band: MxPx
Album: Secret Weapon
Tabbed By: TheReverend724 (Dylan Browne)

Intro
|------------------------------------------|
|------------------------------------------|
|------------5-5-5555------------5-5-5555--|
|--7-7-7777--x-x-xxxx--5-5-5555--x-x-xxxx--| x2
|--x-x-xxxx--3-3-3333--x-x-xxxx--5-5-5555--|
|--5-5-5555------------3-3-3333------------|

Verse
|-------------------------------------------------------|
|-------------------------------------------------------|
|----------5-5--5----------7-7--7------9-9-9-9-9-9-9-9--|
|--7-7--7--5-5--5--5-5--5--7-7-7--x3-9-9-9-9-9-9-9-9--|
|--7-7--7--3-3--3--5-5--5--5-5--5------7-7-7-7-7-7-7-7--|
|--5-5--5----------3-3--3-------------------------------|

Chorus
|--------------------------------------------|
|--------------------------------------------|
|-------------------55-5-44-4------4455------|
|-33-333-3-55-555-5-xx-x-xx-x-77-7-xxxx--x3--|
|-33-333-3-55-555-5-33-3-22-2-xx-x-2233------|
|-11-111-1-33-333-3-----------55-5-----------|

Then
|------------------| (Note 1st time rest on 4)
|------------------|
|------------------|
|-33-333-3-55-55-5-|
|-33-333-3-55-55-5-|
|-11-111-1-33-33-3-|

Repeat Verse

Repeat Chorus

Bridge
|--------------------------------------------------|
|--------------------------------------------------|
|--5-5555555---------------------------------------|
|--5-5555555-5555-7-7777777-5555-33333333-55555555-| x2
|--3-3333333-2222-7-7777777-5555-33333333-55555555-|
|-----------------5-5555555-3333-11111111-33333333-|
[ Tab from: http://www.guitaretab.com/m/mxpx/91222.html ]
Solo
|------------------------------------------------------|
|----------------------------------------10------------|
|-------------------5h7p5------7b-777b------9p7-9p7-7b-|
|-------------7*--7-------7-7--------------------------|
|-----------5------------------------------------------|
|-5-555-5-8--------------------------------------------|

|--------------------------------------------------|
|--------------------------------------------------|
|-7-5h77p5-7-5-----5-------------------------------|
|--------------7-7---7-5---5-----------------------|
|------------------------7---7-5------3b---5---5b--|
|--------------------------------8-5---------------|


Rhythm Under Solo
|-----------------------------------------------|
|-----------------------------------------------|
|-----------------------------------------------|
|-77777777777-5555555555-3333333333-555555555---|
|-77777777777-5555555555-3333333333-555555555---|
|-55555555555-3333333333-1111111111-333333333---|

Repeat Chorus

Ending
|-----------------------------------------------------|
|-10--10--12--12--13--13--15--15--13--12--10-let-ring-|
|-12b-12b-14b-14b-15b-15b-17b-------------------------|
|-----------------------------------------------------|
|-----------------------------------------------------|
|-----------------------------------------------------|

|---------------------------------------------------|
|---------------------------------------------------|
|------------------5-555555-7-777777----------------|
|-7-77777-2-222222-5-555555-7-777777-7--------------|
|-7-77777-2-222222-3-333333-5-555555-7--let-ring----|
|-5-55555-0-000000-------------------5--------------|

enjoy
Related for Secret Weapon tab