Song name
# A B C D E F G H I J K L M N O P Q R S T U V W X Y Z

Mxpx - Chop Shop tab

Song: Chop Shop
Artist: MxPx
Album: Secret Weapon

You may need to listen to the CD to get the correct rhythm and timing.

Intro:

Pick slide while on G

e-------------------------------------------------|
B-------------------------------------------------|
G-------6-6-6-------6-6-6-------6-6-6-----3--6--5-|
D-5-5-5-6-6-6-5-5-5-6-6-6-5-5-5-6-6-6--5--3--8--7-|
A-5-5-5-4-4-4-5-5-5-4-4-4-5-5-5-4-4-4--5--1--6--5-|
E-3-3-3-------3-3-3-------3-3-3--------3----------|

Verse: 2X

e-------------------------------------------------------------------------|
B-------------------------------------------------------------------------|
G---------5-5-5-5---------5-5-5-5-5-5-5-5-3-3-3-3-10-10-10-10-10-10-10-10-|
D-5-5-5-5-7-7-7-7-5-5-5-5-7-7-7-7-5-5-5-5-3-3-3-3-10-10-10-10-10-10-10-10-|
A-5-5-5-5-5-5-5-5-5-5-5-5-5-5-5-5-3-3-3-3-1-1-1-1-8--8--8--8--8--8--8--8--|
E-3-3-3-3---------3-3-3-3-------------------------------------------------|

Chorus: 2X

e---------------------------------|
B---------4-4-4-4-----------------|
G---------5-5-5-5-6-6-6-6-5-5-5-5-|
D-5-5-5-5-5-5-5-5-8-8-8-8-7-7-7-7-|
A-5-5-5-5-3-3-3-3-6-6-6-6-5-5-5-5-|
E-3-3-3-3-------------------------|

Post Chorus:

e-------------------------------------------------|
B-------------------------------------------------|
G---------5-5-5-5---------5-5-5-5---------5-5-5-5-|
D-5-5-5-5-7-7-7-7-5-5-5-5-7-7-7-7-5-5-5-5-7-7-7-7-|
A-5-5-5-5-5-5-5-5-5-5-5-5-5-5-5-5-5-5-5-5-5-5-5-5-|
E-3-3-3-3---------3-3-3-3---------3-3-3-3---------|

e-------------------------------------------------|
B-------------------------------------------------|
G-------6-6-6-------6-6-6-------6-6-6-----3--6--5-|
D-5-5-5-6-6-6-5-5-5-6-6-6-5-5-5-6-6-6--5--3--8--7-|
A-5-5-5-4-4-4-5-5-5-4-4-4-5-5-5-4-4-4--5--1--6--5-|
E-3-3-3-------3-3-3-------3-3-3--------3----------|

Verse 2: 2X

e-------------------------------------------------------------------------|
B-------------------------------------------------------------------------|
G---------5-5-5-5---------5-5-5-5-5-5-5-5-3-3-3-3-10-10-10-10-10-10-10-10-|
D-5-5-5-5-7-7-7-7-5-5-5-5-7-7-7-7-5-5-5-5-3-3-3-3-10-10-10-10-10-10-10-10-|
A-5-5-5-5-5-5-5-5-5-5-5-5-5-5-5-5-3-3-3-3-1-1-1-1-8--8--8--8--8--8--8--8--|
E-3-3-3-3---------3-3-3-3-------------------------------------------------|

Chorus: 2X

e---------------------------------|
B---------4-4-4-4-----------------|
G---------5-5-5-5-6-6-6-6-5-5-5-5-|
D-5-5-5-5-5-5-5-5-8-8-8-8-7-7-7-7-|
A-5-5-5-5-3-3-3-3-6-6-6-6-5-5-5-5-|
E-3-3-3-3-------------------------|

Post Chorus/Bridge:

e-----------------------------------------------|
B-----------------------------------------------|
G-------6-6-6-------6-6-6-----------8----5----5-|
D-5-5-5-6-6-6-5-5-5-6-6-6-8----5----8----5----7-|
A-5-5-5-4-4-4-5-5-5-4-4-4-8----5----6----3----5-|
E-3-3-3-------3-3-3-------6----3----------------|
                          ^x16 ^x16 ^x16 ^x8  ^x8

Verse 2: 2X

e----------------------|
B----------------------|
G----5-----5--5--3--10-|
D-5--7--5--7--5--3--10-|
A-5--5--5--5--3--1--8--|
E-3-----3--------------|

Sirens Part: 4X

e-----------------------------------|
B-----------------------------------|
G---------7-7-7-7-8-8-8-8-----------|
D-5-5-5-5-7-7-7-7-8-8-8-8-8-8-7-7---|
A-5-5-5-5-5-5-5-5-6-6-6-6-8-8-7-7---|
E-3-3-3-3-----------------6-6-5-5---|

Chorus: 2X

e---------------------------------|
B---------4-4-4-4-----------------|
G---------5-5-5-5-6-6-6-6-5-5-5-5-|
D-5-5-5-5-5-5-5-5-8-8-8-8-7-7-7-7-|
A-5-5-5-5-3-3-3-3-6-6-6-6-5-5-5-5-|
E-3-3-3-3-------------------------|

Post Chorus/Ending

e-----------------------------------------------------------|
B-----------------------------------------------------------|
G---------5-5-5-5---------5-5-5-5---------5-5-5-5---3-6-5---|
D-5-5-5-5-7-7-7-7-5-5-5-5-7-7-7-7-5-5-5-5-7-7-7-7-5-3-8-7-5-|
A-5-5-5-5-5-5-5-5-5-5-5-5-5-5-5-5-5-5-5-5-5-5-5-5-5-1-6-5-5-|
E-3-3-3-3---------3-3-3-3---------3-3-3-3---------3-------3-|
Tap to rate this tab
 
# A B C D E F G H I J K L M N O P Q R S T U V W X Y Z