Song name
# A B C D E F G H I J K L M N O P Q R S T U V W X Y Z

Mxpx - Never Better Than Now tab

Help us improve GuitareTab! Take a short survey!
MXPX - Never Better Than Now
Tabbed by Derek - wow.francis@gmail.com

Chords for the different parts are given, just listen to the 
recording to work out the rhythms.

Intro:
The strings with x's should not be played.
e|-x---x---x---x---x---x-----|
B|-8--10--12--13--12--10-----|
G|-0---0---0---0---0---0-----|
D|-x---x---x---x---x---x-----|
A|-7---9--10--12--10---9-----|
E|-x---x---x---x---x---x-----|

Verse:
e|-xxxx-xxxx-xxxxxx-xxxxxx-xxxx-xxx-xx----|
B|-8878-7757-333333-555555-3353-555-55----|
G|-0000-0000-000000-000000-0000-000-00----|
D|-xxxx-xxxx-xxxxxx-xxxxxx-xxxx-xxx-xx----|
A|-7777-5555-222222-333333-2222-333-33----|
E|-xxxx-xxxx-xxxxxx-xxxxxx-xxxx-xxx-xx----|

e|-xxxx-xxxx-xxxxxx-xxxxxx-xxxx-xxxxxx-x--|
B|-8878-7757-333333-555555-3353-555555-7--|
G|-0000-0000-000000-000000-0000-000000-0--|
D|-xxxx-xxxx-xxxxxx-xxxxxx-xxxx-xxxxxx-x--|
A|-7777-5555-222222-333333-2222-333333-5--|
E|-xxxx-xxxx-xxxxxx-xxxxxx-xxxx-xxxxxx-x--|

Chorus:
Palm muted part.
(When you live you gotta live large..)
e|-------------7----------------|
B|-------------8----------------|
G|-------2--5--9--7--5----------|
D|-------2--5--9--7--5----------|
A|-5--5--0--3--7--5--3----------|
E|-3--2-------------------------|

Main Chorus:
Here are the chords for the main chorus.
(Never better than now!)
e|-------7----------------------|
B|-------8----------------------|
G|-4--5--9--7--5----------------|
D|-5--5--9--7--5----------------|
A|-5--3--7--5--3----------------|
E|-3----------------------------|

Play Intro.
Play Verse.
Play Chorus.

More palm mute with little riff.
(I'm left here wondering..)
e|------------------------------|
B|---------------8--7--5--5-----|
G|----------------0--0--0--0----|
D|------------------------------|
A|-5--5--5--5---7--5--3--3------|
E|-2--3--2--3-------------------|

(But I get back on the horse..)
e|---------------------------------------|
B|---------------8--7--5--5--8--7--5--5--|
G|----------------0--0--0--0--0--0--0--0-|
D|---------------------------------------|
A|-5--5--5--5---7--5--3--3--7--5--3--3---|
E|-2--3--2--3----------------------------|

(When you talk you gotta talk fast..)
e|----------7-------------------|
B|----------8-------------------|
G|-------2--9--5----------------|
D|-------2--9--5----------------|
A|-5--5--0--7--3----------------|
E|-3--2-------------------------|

Play Main Chorus x2.

Ending:
e|-x--x--x--------|
B|-8--7--5--------|
G|-0--0--0--------|
D|-x--x--x--------|
A|-7--5--3--------|
E|-x--x--x--------|
Related for Never Better Than Now tab