Song name
# A B C D E F G H I J K L M N O P Q R S T U V W X Y Z

Mxpx - Shut It Down tab

-----------------------------------------------------------------
Shut It Down - MxPx
-----------------------------------------------------------------
Tabbed by: Bair
Email: bair_morritt@hotmail.com

Tuning: Standard

Intro:
e|------------------------------------------|
B|------------------------------------------|
G|--xx4--7------------7--9--4---------------|
D|--xx4--7--7--5-(X2)-7--9--4---------------|
A|--xx2--5--7--5------5--7--2---------------|
E|----------5--3----------------------------|
"This is a public service...."

Intro part 2:
e|------------------------------------------|
B|------------------------------------------|
G|-444444--444444--444444--4-----7----------|
D|-444444--444444--444444--4--5--7--7-------|
A|-222222--222222--222222--2--5--5--7-------|
E|----------------------------3-----5-------|

Verse:
e|-----------------------------------|
B|-----------------------------------|
G|--4444--7---------------7----------|
D|--4444--7--7--5555--77--7--7-(X2)--|
A|--2222--5--7--5555--77--5--7-------|
E|-----------5--3333--55-----5-------|
"Now that I'm awake...."

Pre-Chorus:
e|-----------------------------------------------|
B|-----------------------------------------------|
G|--44444444------------77777777-----------------|
D|--44444444--55555555--77777777--77777777-(X2)--|
A|--22222222--55555555--55555555--77777777-------|
E|------------33333333------------55555555-------|
“Whoa!!!.....................”

Chorus:
e|-----------------------------------------------------------------|
B|-----------------------------------------------------------------|
G|--44444444------------99999999--11-11-11-11-11-11-11-11-11-------|
D|--44444444--55555555--99999999--11-11-11-11-11-11-11-11-11-(X2)--|
A|--22222222--55555555--77777777--9--9--9--9--9--9--9--9--9--------|
E|------------33333333---------------------------------------------|
“Shut it down....”

e|------------------------------------------|
B|------------------------------------------|
G|-12-12-12-12--14-14-14-14-----------------|
D|-12-12-12-12--14-14-14-14-----------------|
A|-10-10-10-10--12-12-12-12-----------------|
E|------------------------------------------|

-Then Verse
-Then Chorus

Interlude:
e|---------------------------------------|
B|---------------------------------------|
G|----------------------7--9--7----------|
D|--55555555--77777777--7--9--7--7-(X2)--|
A|--55555555--77777777--5--7--5--7-------|
E|--33333333--55555555-----------5-------|
“I don’t wanna die....”

-Then Pre-Chorus (X2)
-Then Chorus
-Then Intro part 2
Tap to rate this tab
# A B C D E F G H I J K L M N O P Q R S T U V W X Y Z