Song name
# A B C D E F G H I J K L M N O P Q R S T U V W X Y Z

My American Heart - Miles Behind Us tab

Help us improve GuitareTab! Take a short survey!
blahh.

i have no clue why im tabbing this.
i have everything down NOW. but im trying to do it
on guitar pro.
but ill give you this.

     E  E  E  E   E  E  E  E     E  E   E  E  E  E   E   E   
E||---------------------------|-----------------------------|
B||-----7--------10--------7--|--------10--------7h--8p--7--|
G||--------7---------7--------|--7---------7----------------|
D||--9--------9---------9-----|-----9---------9-------------|
A||---------------------------|-----------------------------|
D||---------------------------|-----------------------------|


  E  E  E  E   E  E  E  E     E  E   E  E  E  E   E   E   
---------------------------|-----------------------------|
-----7--------10--------7--|--------10--------7h--8p--7--|
--------7---------7--------|--7---------7----------------|
--9--------9---------9-----|-----9---------9-------------|
---------------------------|-----------------------------|
---------------------------|-----------------------------|


  E  E  E  E   E  E  E  E     E  E   E  E  E  E   E   E   
---------------------------|-----------------------------|
-----7--------10--------7--|--------10--------7h--8p--7--|
--------7---------7--------|--7---------7----------------|
--9--------9---------9-----|-----9---------9-------------|
---------------------------|-----------------------------|
---------------------------|-----------------------------|


  E  E  E  E   E  E  E  E     E  E   E  E  E  E   E   E   
---------------------------|-----------------------------|
-----7--------10--------7--|--------10--------7h--8p--7--|
--------7---------7--------|--7---------7----------------|
--9--------9---------9-----|-----9---------9-------------|
---------------------------|-----------------------------|
---------------------------|-----------------------------|


  E  E  E  E   E  E  E  E     E  E   E  E  E  E   E   E                
---------------------------|-----------------------------|-----|-----||
-----7--------10--------7--|--------10--------7h--8p--7--|-----|-----||
--------7---------7--------|--7---------7----------------|-----|-----||
--9--------9---------9-----|-----9---------9-------------|-----|-----||
---------------------------|-----------------------------|-----|-----||
---------------------------|-----------------------------|-----|-----||
Related for Miles Behind Us tab