Song name
# A B C D E F G H I J K L M N O P Q R S T U V W X Y Z

My American Heart - Innocent Letter tab

-------------------------------------------------------------------------------
			     Innocent Letter - My American Heart
-------------------------------------------------------------------------------
Tabbed by: heyitsthemokid

Tuning: Drop C#


alright so im bored right now , and over the summer i learned the whole album Hiding 
The Horrible Weather.
so yeah , i have no life.

ill update everyday.

D#|-------------------------------------------------------------------|
A#|-----------------------------10--------------------------------10--|
F#|--/10-9-7---10-9-7---7/9h10p9-----/10-9-7---10-9-7----7/9h10p9-----|
C#|---------7--------7----------------------8--------8----------------|
G#|-------------------------------------------------------------------|
C#|-------------------------------------------------------------------|

D#|----------------------------------|
A#|------------------------------10--|
F#|-/10-9-7----10-9-7---7/9h10p9-----|
C#|--------10--------7---------------|
G#|----------------------------------|
C#|----------------------------------|

D#|--13-12-10--------13-12-10--------8----10--|
A#|-----------13-10~----------13-10~---10-----|
F#|-------------------------------------------|
C#|-------------------------------------------| x2
G#|-------------------------------------------|
C#|-------------------------------------------|


D#|--13-12-10----8.-8/10--|
A#|-----------13----------|
F#|-----------------------|
C#|-----------------------|
G#|-----------------------|
C#|-----------------------|

| /  slide up
| \  slide down
| h  hammer-on
| p  pull-off
| ~  vibrato
| .  Mute
| x  Mute note
===============================================================================
Tap to rate this tab
# A B C D E F G H I J K L M N O P Q R S T U V W X Y Z