Song name
# A B C D E F G H I J K L M N O P Q R S T U V W X Y Z

My American Heart - All My Friends tab

Standard Tuning

CORRECTED SLIGHTLY!

Verse
    Dm          C        ?           ??

E|----------------------------------------------------|
B|-------6----------5------------------------10-------|
G|---------7----------5---------10---------10---10----|
D|-----7-----------5----------9----9-----8---------8--|
A|---5-------5---3------3--10--------10---------------|
E|----------------------------------------------------|
    Dm         C         ?            ?
E|----------------------------------------------------|
B|-------6----------5---------------------------------|
G|---------7----------5---------10-------------10-----|
D|-----7-----------5----------9----9----9----9----9---|
A|---5-------5---3------3--10--------10---10--------10|
E|----------------------------------------------------|

Chorus

E|---------------------------------------------|
B|---------------------------------------------|
G|------5-----------5------------10------------|
D|----7---7---7---5---5---5---10----10---10----|
A|--5-------5---3-------3---8----------8-------|
E|---------------------------------------------|

E|-------------------     ---------------------|
B|-------------------     ---------------------|
G|------5------------     --------5------------|
D|----3---3---3------ OR  ---------------------|
A|--1-------1--------     ------8---8---8------|
E|-------------------     ----6-------6--------|

*Strummage of the "chords"*

Outro

E|---------------------|
B|---------------------|
G|--5------5------5----|
D|--7------5------3----|
A|--5------3------1----|
E|---------------------|


Email corrections to Blassassin@hotmail.com

Otherwise, enjoy =D
Tap to rate this tab
 
# A B C D E F G H I J K L M N O P Q R S T U V W X Y Z