Guitaretab - guitar tabs
Song name
# A B C D E F G H I J K L M N O P Q R S T U V W X Y Z

My American Heart - Dont Sleep tab

-----------------------------------------------------------------------------------
			     Don't Sleep - My American Heart
-----------------------------------------------------------------------------------
Tabbed by:heyitsthemokid

Tuning:Drop D

Intro:
e|-------------------------------------------------------------------------|
B|-------------------------------------------------------------------------|
G|--------------------------------------------------------14----13-----13--|
D|00000000-2222-02-4------44-77-44----44------4-77-0--000-x--00-x---00-x---|
A|00000000-2222-02-4-7777-44----44-77-44-7777-4----0--000-12-00-11--00-11--|
D|00000000-2222-02-4------44----44----44------4----0--000----00-----00-----|
                                                      ...      ..   ..

e|------------------| 
B|------------------|
G|----13------14----|
D|000-x-slide-x--0--|
A|000-11------12-0--|
D|000------------0--|
  ...            .
play a second time from open strings.
instead of playing the last measure above
play the one below.

e|-----------| 
B|-----------|
G|----13-----|
D|000-x---0--|
A|000-11--0--|
D|000-----0--|
  ...     .

Verse: 2x
e|--------------------------------------------------------------------------|
B|--------------------------------------------------------------------------|
G|--------------------------------------------------------------------------|
D|4444444--000--222--4444444--000--222--4444444--777--000--4444444--777--000|
A|4444444--000--222--4444444--000-222--4444444--777--000--4444444--777--000|
D|4444444--000--222-4444444-000-222--4444444--777--000--4444444-777--000|
[ Tab from: http://www.guitaretab.com/m/my-american-heart/63981.html ]
Chorus:
e|-----------------------------------------------------------------------|
B|-----------------------------------------------------------------------|
G|-----------------------------------14----13----13-----13-----13------14|
D|4-xxxx-44-44-44-xxxx-444-xx-x-0-xx-x--xx-x--xx-x---xx-x---xx-x-slide-x-|
A|4-xxxx-44-44-44-xxxx-444-xx-x-0-xx-12-xx-11-xx-11--xx-11--xx-11------12|
D|4-xxxx-44-44-44-xxxx-444-xx-x-0-xx----xx----xx-----xx-----xx-----------|
						
e|-----------------------------------------------------------------------|
B|-----------------------------------------------------------------------|
G|-----------------------------------14----13----13-----13-----13------14|
D|4-xxxx-44-44-44-xxxx-444-xx-x-0-xx-x--xx-x--xx-x---xx-x---xx-x-slide-x-|
A|4-xxxx-44-44-44-xxxx-444-xx-x-0-xx-12-xx-11-xx-11--xx-11--xx-11------12|
D|4-xxxx-44-44-44-xxxx-444-xx-x-0-xx----xx----xx-----xx-----xx-----------|

e|--------------------------------------------------------------------------------|
B|--------------------------------------------------------------------------------|
G|-----------------------------------------------------------------14----13-------|	
D|444-2-2424-444-2-222-2-44------44-77-4----44------44-77-44-0-000-x--00-x--00-999|
A|444-2-2424-444-2-222-2-44-7777-44----4-77-44-7777-44----44-0-000-12-00-11-00-777|
D|444-2-2424-444-2-222-2-44------44----4----44------44----44-0-000----00----00----|
		   ...					  ..    ..    ..

Verse: 2x
e|--------------------------------------------------------------------------|
B|--------------------------------------------------------------------------|
G|--------------------------------------------------------------------------|
D|4444444--000--222--4444444--000--222--4444444--777--000--4444444--777--000|
A|4444444--000--222--4444444--000-222--4444444--777--000--4444444--777--000|
D|4444444--000--222-4444444-000-222--4444444--777--000--4444444-777--000|


Intro
Verse(x2)
Chorus
Verse(x2)
Chorus
-stuff i havnt tabbed yet.-

| .  palm mute
| /  slide up
| \  slide down
| h  hammer-on
| p  pull-off
| ~  vibrato
| +  harmonic
| x  Mute note
===================================================================================
Related for Dont Sleep tab