Song name
# A B C D E F G H I J K L M N O P Q R S T U V W X Y Z

My American Heart - Boys Graby Your Guns tab

-------------------------------------------------------------------------------
			     Boys Grab Your Guns - My American Heart
-------------------------------------------------------------------------------
Tabbed by:heyitsthemokid

Tuning:Drop D

ive realized that this tab sucks.
so i made a new tab. but second guitar. Ver.2

e|------------------------------------------------------------|
B|--------------------------------------5----3-5--------------|
G|------22-5-2-5/7/5------7---7/9/7----------------4---4/5/4--|
D|-33------------------55---5--------33---33----22--22--------|
A|-33------------------55---5--------33---33----22--22--------|
D|-33------------------55---5--------33---33----22--22--------|

e|------------------------------------------------|
B|------------------------------------------------|
G|-22-5-2-2-5/7/5----7---7/9/7--99-99-99-9--10-9--|
D|----------------55---5--------xx-xx-xx-x--x--x--|
A|----------------55---5--------77-77-77-7/-8-/7--|
D|----------------55---5--------------------------|
                                  x  x  x
| /  slide up
| \  slide down
| h  hammer-on
| p  pull-off
| ~  vibrato
| +  harmonic
| x  Mute note
===============================================================================
Tap to rate this tab
# A B C D E F G H I J K L M N O P Q R S T U V W X Y Z