Song name
# A B C D E F G H I J K L M N O P Q R S T U V W X Y Z

My American Heart - Dangerous Acoustic tab

----------------------------------------------------------------------------
                      Dangerous (Acoustic)- My American Heart
----------------------------------------------------------------------------

Tabbed by:Chris Connolly
Email:Sgkid142@hotmail.com

Tuning:Standard

    Intro / Chorus
e|---------------------------------------------------------------------------|
B|---------------------------------------------------------------------------|
G|---------------7-7-7--------------7-7h9-7----------------7---7h9--77-7/9---|
D|--------5h7/9--9-9-9-------5-7/9--9-9---9-------5h7/9----9---9----99-9-----|
A|----5h7----------------5-7------------------5h7----------------------------|
E|-------------------------------------------------------8---8---------------|
                                           3rd time ends with this
e|------------------------------------|----------------------------------------|
B|------------------------------------|----------------------------------------|
G|-----4--4---4---repeat intro-x3-----|-----4-444-----7-4----------------------|
D|-----5--5/7-5-----------------------|-----5-555-5/7---5----------------------|
A|------------------------------------|----------------------------------------|
E|------------------------------------|----------------------------------------|
        Verse
e|---------------------------------------------------------------------------|
B|---------------------------------------------------------------------------|
G|---------4-4h5--4-4h5-----7-7h9--7-7h9---11-11h12--11-11h12----------------|
D|---------5-5----5-5-------9-9----9-9-----12-12-----122--------repeat x3----|
A|---------------------------------------------------------------------------|
E|-------0-------0---------0------0-------0---------0------------------------|    listen for rhythm

e|-----------------------------------x---------------------------------------|
B|-----------------------------------x---------------------------------------|
G|------4^^-----4-5----7-7----7-7/0--x---------------------------------------|
D|------5^^-----5-6----9-9----9-9/0--x---------------------------------------|
A|-----------------------------------x---------------------------------------|
E|------------0-------0------0-------x---------------------------------------|
 Intro / Chorus
e|---------------------------------------------------------------------------|
B|---------------------------------------------------------------------------|
G|---------------7-7-7--------------7-7h9-7----------------7---7h9--77-7/9---|
D|--------5h7/9--9-9-9-------5-7/9--9-9---9-------5h7/9----9---9----99-9-----|
A|----5h7----------------5-7------------------5h7----------------------------|
E|-------------------------------------------------------8---8---------------|
                                         3rd time ends with this
e|------------------------------------|----------------------------------------|
B|------------------------------------|----------------------------------------|
G|-----4--4---4---repeat intro-x3-----|-----4/--7-4-5-7------------------------|
D|-----5--5/7-5-----------------------|-----5/7-9-5-7-9------------------------|
A|------------------------------------|----------------------------------------|
E|------------------------------------|----------------------------------------|

e|---------------------------------------------------------------------------|
B|---------------------------------------------------------------------------|
G|----44/5-----12-11----11-12-11----11----44------77/9----11-12-11----11-----|
D|----55-------------12----------12-------55/7----99---12----------12--------|
A|---------------------------------------------------------------------------|
E|--0------------------------------------0------0----------------------------|

e|---------------------------------------------------------------------------|
B|---------------------------------------------------------------------------|
G|-----4--4/5-----7--7/9---12-12-12-12-12-12--4^^-4-4---7-7-7----------------|
D|-----5--5-------9--9-----12-12-12-12-12-12--5^^-5-5---9-9-9----------------|
A|---------------------------------------------------------------------------|
E|---0---0------0---0--------------------------------------------------------|

e|---------------------------------------------------------------------------|
B|---------------------------------------------------------------------------|
G|------------------------------------44---77999-----------------------------|
D|---2-2--12-12--3-3---12-12-12-12----55---99999-----------------------------|
A|---3-3--12-12--3-3---12-12-12-12-------------------------------------------|
E|-----------------------------------0----0----------------------------------|

That pretty much it...another chorus as the outro...im not prefect but pretty close if u 
around with it..if you have any questions or comments email me at sgkid142@hotmail.com


| /  slide up
| \  slide down
| h  hammer-on
| p  pull-off
| ~  vibrato
| +  harmonic
| x  Mute note
===============================================================================
Tap to rate this tab
 
# A B C D E F G H I J K L M N O P Q R S T U V W X Y Z