Song name
# A B C D E F G H I J K L M N O P Q R S T U V W X Y Z

My Bitter End - To All Things Expendable tab

----------------------------------------------------------------------------
			     TO ALL THINGS EXPENDABLE-My Bitter End
----------------------------------------------------------------------------
Tabbed by:Victor
Email:victor5464@gmail.com

NOTE: id say this tab is at least 80% right. the beggining riff i'm not too sure about.
i know im missing the wierd sweeps towards the end of the song. feel free to correct any
in here or add something.

Tuning:(low to high) C# G# C# F# A# D#

INTRO (4x)

Rhythm gtr.
D#|-----------------------------------|
A#|-----------------------------------|
F#|-----------------------------------|
C#|-0---------------------------------|
G#|-0---------------------------------|
C#|-0---------------------------------|

Lead gtr. (srry dont have the other part to this)
                 |-3-|
D#|-----------------------------------|
A#|-----------------------------------|
F#|--------------7-8-7----7-----------|
C#|----------7-8-------10---8-10-7-8--|
G#|-5/7-8-10--------------------------|
C#|-----------------------------------|

BUILD-UP (play only once)
Both gtrs.

D#|----------------------|
A#|----------------------|
F#|----------------------|
C#|-0-------------0-0----|
G#|-0-------------0-0----|
C#|-0-------------0-0----|

             |-3-|      |-3------------|
D#|------------------------------------|
A#|------------------------------------|
F#|-10-8-7-8-7-8-7----7----------------|
C#|----------------10---8-10-8--7-8----|
G#|------------------------------------|
C#|------------------------------------|

RIFF 1

D#|---------------------------------------|
A#|---------------------------------------|
F#|---------------------------------------|
C#|-----3---5---7---5---3---2---2-3-5-----|
G#|---------------------------------------|
C#|-0-0---0---0---0---0---0---0-----------|
    . .   .   .   .   .   .   .
                   |-3-| |-3-| |-3-| |-3-------|
e|---------------------------------------------|
B|---------------------------------------------|
G|-----------------------3-5-7-------3-5-7-----|
D|-----3---5---7---3-5-7-------3-5-7-----------|
A|---------------------------------------------|
E|-0-0---0---0---0-----------------------------|
   . .   .   .   .
D#|---------------------------------------|
A#|---------------------------------------|
F#|---------------------------------------|
C#|-----3---5---7---8---7---5---3-5-7-----|
G#|---------------------------------------|
C#|-0-0---0---0---0---0---0---0-----------|
    . .   .   .   .   .   .   .
                    |-3-| |-3-| |-3-| |-3------|
e|---------------------------------------------|
B|---------------------------------------------|
G|-----------------------3-5-7-------3-5-7-----|
D|-----3---5---7---3-5-7-------3-5-7-----------|
A|---------------------------------------------|
E|-0-0---0---0---0-----------------------------|
   . .   .   .   .

D#|---------------------------------------|
A#|---------------------------------------|
F#|---------------------------------------|
C#|-----3---5---7---5---3---2---2-3-5-----|
G#|---------------------------------------|
C#|-0-0---0---0---0---0---0---0-----------|
    . .   .   .   .   .   .   .
                   |-3-| |-3-| |-3-| |-3-------|
e|---------------------------------------------|
B|---------------------------------------------|
G|-----------------------3-5-7-------3-5-7-----|
D|-----3---5---7---3-5-7-------3-5-7-----------|
A|---------------------------------------------|
E|-0-0---0---0---0-----------------------------|
   . .   .   .   .
D#|---------------------------------------|
A#|---------------------------------------|
F#|---------------------------------------|
C#|-----3---5---7---8---7---5---3-5-7-----|
G#|---------------------------------------|
C#|-0-0---0---0---0---0---0---0-----------|
    . .   .   .   .   .   .   .
                    |-3-| |-3-| |-3-| |-3------|
e|---------------------------------------------|
B|---------------------------------------------|
G|-----------------------3-5-7-------3-5-7-----|
D|-----3---5---7---3-5-7-------3-5-7-----------|
A|---------------------------------------------|
E|-0-0---0---0---0-----------------------------|
   . .   .   .   .
    |-3-| |-3-| |-3-| |-3-| |-3--| |-3--| |-3--| |-3------|
D#|-------------------------------------------------------|
A#|-------------------------------------------------------|
F#|-------3-5-7-------5-7-8--------7-8-10--------7-8-10---|
C#|-3-5-7-------5-7-8-------7-8-10--------7-8-10----------|
G#|-------------------------------------------------------|
C#|-------------------------------------------------------|

             |-3-|      |-3------------|
D#|------------------------------------|
A#|------------------------------------|
F#|-10-8-7-8-7-8-7----7----------------|
C#|----------------10---8-10-8--7-8----|
G#|------------------------------------|
C#|------------------------------------|


             |-3-|      |-3------------|
D#|------------------------------------|
A#|------------------------------------|
F#|-10-8-7-8-7-8-7----7----------------|
C#|----------------10---8-10-8--7-8----|
G#|------------------------------------|
C#|------------------------------------|

                 |-3-|
D#|-----------------------------------|
A#|-----------------------------------|
F#|--------------7-8-7----7-----------|
C#|----------7-8-------10---8-10-7-8--|
G#|-5/7-8-10--------------------------|
C#|-----------------------------------|

BLAST SECTION

    |-3-|     |-3-|             |-3-|      |-3-| |-3-| |-3-| |-3-----|
D#|------------------------------------------------------------------|
A#|------------------------------------------------------------------|
F#|---------------------------------------------3-5-7-------3-5-7----|
C#|-0-0-0-0---0-0-0-0---0-0-0---0-0-0-0---3-5-7-------3-5-7----------|
G#|-0-0-0-0---0-0-0-0---0-0-0---0-0-0-0------------------------------|
C#|-0-0-0-0---0-0-0-0---0-0-0---0-0-0-0------------------------------|
    . . . .   . . . .   . . .   . . . .

   |-3-|     |-3-|             |-3--------|
D#|---------------------------------------|
A#|---------------------------------------|
F#|---------------------------------------|
C#|-0-0-0-0---0-0-0-0---0-0-0---0-0-0-0---|
G#|-0-0-0-0---0-0-0-0---0-0-0---0-0-0-0---|
C#|-0-0-0-0---0-0-0-0---0-0-0---0-0-0-0---|
    . . . .   . . . .   . . .   . . . .
     |-3-| |-3-| |-3-| |-3-| |-3-| |-3-| |-3--| |-3-----|
D#|-----------------------------------------------------|
A#|-----------------------------------------------------|
F#|--------3-5-7-------3-5-7-------5-7-8--------7-8-10--|
C#|--3-5-7-------3-5-7-------5-7-8-------7-8-10---------|
G#|-----------------------------------------------------|
C#|-----------------------------------------------------|

    |-3-|     |-3-|             |-3--------------------------------|    (i think thats 
right amount...)
D#|-------------------------------------|--------------------------|
A#|-------------------------------------|--------------------------|
F#|-------------------------------------|--------------------------|
C#|-0-0-0-0---0-0-0-0---0-0-0---0-0-0-0_|-0-0-0-0-0-0-0-0-0-0-0-0--|
G#|-0-0-0-0---0-0-0-0---0-0-0---0-0-0-0-|-0-0-0-0-0-0-0-0-0-0-0-0--|
C#|-0-0-0-0---0-0-0-0---0-0-0---0-0-0-0-|-0-0-0-0-0-0-0-0-0-0-0-0--|
    . . . .   . . . .   . . .   . . . .   . . . . . . . . . . . .

  (again give or take on the rhythm)
D#|-----------------------------------|
A#|-----------------------------------|
F#|-----------------------------------|
C#|-0000000000000----0000000000000----|
G#|-0000000000000----0000000000000----|
C#|-0000000000000----0000000000000----|
    .............    .............

D#|----------------------------------|
A#|----------------------------------|
F#|----------------------------------|
C#|-0000000000000----0---2---0---4---|
G#|-0000000000000----0---2---0---4---|
C#|-0000000000000----0---2---0---4---|
    ............

D#|-----------------------------------|
A#|-----------------------------------|
F#|-----------------------------------|
C#|-0-0-0-0-0-0-0----0-0-0-0-0-0-0----|
G#|-0-0-0-0-0-0-0----0-0-0-0-0-0-0----|
C#|-0-0-0-0-0-0-0----0-0-0-0-0-0-0----|
    . . . . . .      . . . . . .
                                        P.H.
D#|-----------------------------------------|
A#|-----------------------------------------|
F#|-----------------------------------------|
C#|-0-0-0-0-0-0-0----0---2---0---4-------4~-|
G#|-0-0-0-0-0-0-0----0---2---0---4----------|
C#|-0-0-0-0-0-0-0----0---2---0---4---0------|
    . . . . . . .

D#|-----------------------------------|
A#|-----------------------------------|
F#|-----------------------------------|
C#|-0000000000000----0000000000000----|
G#|-0000000000000----0000000000000----|
C#|-0000000000000----0000000000000----|
    .............    .............

D#|--------------------------------------------|
A#|--------------------------------------------|
F#|--------------------------------------------|
C#|-0000000000000----0---2---0---4---4-4-4-4-4-|
G#|-0000000000000----0---2---0---4---4-4-4-4-4-|
C#|-0000000000000----0---2---0---4---4-4-4-4-4-|
    ............                     . . . .


INTERLUDE

(bottom and top notes should be played on diferent gtrs. but this works too)
D#|-6------3----1---3------6------10--|
A#|-8------4----3---4------8------11--|
F#|-----------------------------------|
C#|-----------------------------------|
G#|-----------------------------------|
C#|-----------------------------------|

      T        T        T        T        T        T
D#|--15-11-10-15-11-10-15-11-10-15-11-10-15-11-10-15-11-10-|
A#|--------------------------------------------------------|
F#|--------------------------------------------------------|
C#|--------------------------------------------------------|
G#|--------------------------------------------------------|
C#|--------------------------------------------------------|


     T        T        T        T        T        T
D#|--13-11-10-13-11-10-13-11-10-13-11-10-13-11-10-13-11-10-|
A#|--------------------------------------------------------|
F#|--------------------------------------------------------|
C#|--------------------------------------------------------|
G#|--------------------------------------------------------|
C#|--------------------------------------------------------|


     T        T        T        T        T        T
D#|--15-11-10-15-11-10-15-11-10-15-11-10-15-11-10-15-11-10-|
A#|--------------------------------------------------------|
F#|--------------------------------------------------------|
C#|--------------------------------------------------------|
G#|--------------------------------------------------------|
C#|--------------------------------------------------------|


     T        T        T        T        T        T
D#|--13-11-10-13-11-10-13-11-10-13-11-10-13-11-10-13-11-10-|
A#|--------------------------------------------------------|
F#|--------------------------------------------------------|
C#|--------------------------------------------------------|
G#|--------------------------------------------------------|
C#|--------------------------------------------------------|

     T        T        T        T        T        T
D#|--15-11-10-15-11-10-15-11-10-15-11-10-15-11-10-15-11-10-|
A#|--------------------------------------------------------|
F#|--------------------------------------------------------|
C#|--------------------------------------------------------|
G#|--------------------------------------------------------|
C#|--------------------------------------------------------|


     T        T        T        T        T        T
D#|--13-11-10-13-11-10-13-11-10-13-11-10-13-11-10-13-11-10-|
A#|--------------------------------------------------------|
F#|--------------------------------------------------------|
C#|--------------------------------------------------------|
G#|--------------------------------------------------------|
C#|--------------------------------------------------------|


     T        T        T        T        T        T
D#|--15-11-10-15-11-10-15-11-10-15-11-10-15-11-10-15-11-10-|
A#|--------------------------------------------------------|
F#|--------------------------------------------------------|
C#|--------------------------------------------------------|
G#|--------------------------------------------------------|
C#|--------------------------------------------------------|


     T        T        T        T        T        T
D#|--13-11-10-13-11-10-13-11-10-13-11-10-13-11-10-13-11-10-|
A#|--------------------------------------------------------|
F#|--------------------------------------------------------|
C#|--------------------------------------------------------|
G#|--------------------------------------------------------|
C#|--------------------------------------------------------|


D#|-----11-15-11------------11-15/16\15-----11---10--|
A#|---13----------13-----13--------------------------|
F#|-12----------------12-----------------------------|
C#|--------------------------------------------------|
G#|--------------------------------------------------|
C#|--------------------------------------------------|

D#|-----11-15-11------------11-15/16\15-----11---10--|
A#|---13----------13-----13--------------------------|
F#|-12----------------12-----------------------------|
C#|--------------------------------------------------|
G#|--------------------------------------------------|
C#|--------------------------------------------------|

D#|-----11-15-11------------11-15/16\15-----11---10--|
A#|---13----------13-----13--------------------------|
F#|-12----------------12-----------------------------|
C#|--------------------------------------------------|
G#|--------------------------------------------------|
C#|--------------------------------------------------|

D#|-----11-15-11------------11-15/16\15-----11---10--|
A#|---13----------13-----13--------------------------|
F#|-12----------------12-----------------------------|
C#|--------------------------------------------------|
G#|--------------------------------------------------|
C#|--------------------------------------------------|

GTR RIFF 2

D#|----------------------------|
A#|----------------------------|
F#|-7-5-3--------7-5-3---------|
C#|-------7-5-3--------7-5-3---|
G#|----------------------------|
C#|----------------------------|

D#|---------------------------|
A#|---------------------------|
F#|-7---5-----------5---------|
C#|---------7---5-------7-----|
G#|---------------------------|
C#|---0---0---0---0---0---0---|
      .   .   .   .   .   .


D#|----------------------------|
A#|----------------------------|
F#|-7-5-3--------7-5-3---------|
C#|-------7-5-3--------7-5-3---|
G#|----------------------------|
C#|----------------------------|

D#|---------------------------|
A#|---------------------------|
F#|-7---5-----------5---------|
C#|---------7---5-------7-----|
G#|---------------------------|
C#|---0---0---0---0---0---0---|
      .   .   .   .   .   .

D#|----------------------------|
A#|----------------------------|
F#|-7-5-3--------7-5-3---------|
C#|-------7-5-3--------7-5-3---|
G#|----------------------------|
C#|----------------------------|

D#|---------------------------|
A#|---------------------------|
F#|-7---5-----------5---------|
C#|---------7---5-------7-----|
G#|---------------------------|
C#|---0---0---0---0---0---0---|
      .   .   .   .   .   .
D#|---------------------------|
A#|---------------------------|
F#|-7---5-----------5---------|
C#|---------7---5-------7-----|
G#|---------------------------|
C#|---0---0---0---0---0---0---|
      .   .   .   .   .   .


D#|----------------------------|
A#|----------------------------|
F#|-7-5-3--------7-5-3---------|
C#|-------7-5-3--------7-5-3---|
G#|----------------------------|
C#|----------------------------|


D#|---------------------------|    I'm not sure how much more u play this
A#|---------------------------|    but its the same thing so just play it
F#|-7---5-----------5---------|    till the next part
C#|---------7---5-------7-----|
G#|---------------------------|
C#|---0---0---0---0---0---0---|
      .   .   .   .   .   .


SPEED RIFF

D#|-----------------------------------|
A#|-----------------------------------|
F#|-----------------------------------|
C#|-10--------12--------12------------|
G#|-8---------10--------12------------|
C#|-8---------10--------12------------|

D#|-----------------------------------|
A#|-----------------------------------|
F#|-----------------------------------|
C#|-----------------------------------|
G#|-----8-8-10-10-8-8-10-10-12-12-----|
C#|-8-8-------------------------------|

D#|-------------------------------------|
A#|-------------------------------------|
F#|-------------------------------------|
C#|-------------------------------------|
G#|-------10-10-12-12-10-10-12-12-13-13-|
C#|-10-10-------------------------------|

D#|-------------------------------------|
A#|-------------------------------------|
F#|-------------------------------------|
C#|-------------------------------------|
G#|-------12-12-13-13-12-12-13-13-15-15-|
C#|-12-12-------------------------------|

D#|-------------------------------------|
A#|-------------------------------------|   again just play this till the
F#|-------------------------------------|   next part, too lazy to count
C#|-15-15-15-15-13-13-13-13-12-12-12-12-|   myself
G#|-------------------------------------|
C#|-------------------------------------|


D#|-------------------------------------------------|
A#|-------------------------------------------------|
F#|-------------------------------------------------|
C#|-1-1-1---1-1-1---1-1-1--1-1-1----1-1-1-1-1-1-1-1-|
G#|-1-1-1---1-1-1---1-1-1--1-1-1----1-1-1-1-1-1-1-1-|
C#|-1-1-1---1-1-1---1-1-1--1-1-1----1-1-1-1-1-1-1-1-|
    . . .   . . .   . . .  . . .    . . . . . . . .

BREAKDOWN? (srry dont have wierd sweeps)

D#|-----------------------------------|
A#|-----------------------------------|
F#|-----------------------------------|
C#|-1--1--1--1-1----1--1--1--1-1------|
G#|-0--0--0--0-0----0--0--0--0-0------|
C#|-1--1--1--1-1----1--1--1--1-1------|
    .  .  .  . .    .  .  .  . .

D#|-----------------------------------|
A#|-----------------------------------|
F#|-----------------------------------|
C#|-1--1--1--1-1----1-1-1-1-1-1-1-1---|
G#|-0--0--0--0-0----0-0-0-0-0-0-0-0---|
C#|-1--1--1--1-1----1-1-1-1-1-1-1-1---|
    .  .  .  . .    . . . . . . . .

D#|-----------------------------------|
A#|-----------------------------------|
F#|-----------------------------------|
C#|-0-0-0--0-0-0--0-0-0--0-0-0--------|
G#|-0-0-0--0-0-0--0-0-0--0-0-0--------|
C#|-0-0-0--0-0-0--0-0-0--0-0-0--------|
    . . .  . . .  . . .  . . .

D#|--------------------------------|
A#|--------------------------------|
F#|--------------------------------|
C#|-0-0-0-0-0-0-0-0-0-0-0-0--------|
G#|-0-0-0-0-0-0-0-0-0-0-0-0--------|
C#|-0-0-0-0-0-0-0-0-0-0-0-0--------|
    . . . . . . . . . . . .

D#|-----------------------------------|
A#|-----------------------------------|
F#|-----------------------------------| let that last note ring
C#|-0-0-0--0-0----0-0-0--0-0----------|
G#|-0-0-0--0-0----0-0-0--0-0----------|
C#|-0-0-0--0-0----0-0-0--0-0----------|
    . . .  . .    . . .  .

CLEAN OUTRO (this part may be a little off)

D#|------------------------|
A#|------------------------|
F#|-3---3---3---0---0---0--| 2x
C#|---5---5---5---5---5---5|
G#|------------------------|
C#|------------------------|


D#|------------------------|
A#|------------------------|
F#|-3---3---3---7---7---7--| 2x
C#|---5---5---5---5---5---5|
G#|------------------------|
C#|------------------------|


D#|------------------------|
A#|------------------------|
F#|-0---0---0---3---3---3--| 2x
C#|---5---5---5---5---5---5|
G#|------------------------|
C#|------------------------|

D#|------------------------|
A#|------------------------|
F#|-3---3---3---7---7---7--| 2x           continue this progression and end
C#|---5---5---5---5---5---5|               with...
G#|------------------------|
C#|------------------------|


D#|------------------------|
A#|------------------------|
F#|-3---3---3---7~---------|
C#|---5---5---5------------|
G#|------------------------|
C#|------------------------|


| /  slide up
| \  slide down
| h  hammer-on
| p  pull-off
| ~  vibrato
| +  harmonic
| x  Mute note
| . P.M.
============================================================================
Tap to rate this tab
# A B C D E F G H I J K L M N O P Q R S T U V W X Y Z