Song name
# A B C D E F G H I J K L M N O P Q R S T U V W X Y Z

My Bitter End - The Renovation tab

                                 THE RENOVATION
                          As recorded by My Bitter End
                      (From the 2007 Album THE RENOVATION)

Words by Tyler Guida

Music by My Bitter End
Transcribed by Patsyxcore

Gtr I (Db Ab Db Gb Bb Eb) - 'Right'
Gtr II (Db Ab Db Gb Bb Eb) - 'Left'
Gtr III (Db Ab Db Gb Bb Eb) - 'Center'
Gtr IV (Db Ab Db Gb Bb Eb) - 'Center'

 Intro
  Deathcore Q.=155
  N.C.
 4/4
  Gtr I
  W          E E E E E E E E   E E E E E E E E   E E E E E E E  E
|----------|-----------------|-----------------|------------------||
|----------|-----------------|-----------------|------------------||
|----------|---------3-6-----|-----4-7---------|-5-8---------7-11-||
|----------|-----2-5---------|-3-6---------4-7-|---------6-9------||
|----------|-1-4---------2-5-|---------3-6-----|-----5-8----------||
|----------|-----------------|-----------------|------------------||
|
| Gtr II
| W          E E E E E E E E   E E E E E E E E   E E E E E E E  E
|----------|-----------------|-----------------|------------------||
|----------|-----------------|-----------------|------------------||
|----------|---------3-6-----|-----4-7---------|-5-8---------7-11-||
|----------|-----2-5---------|-3-6---------4-7-|---------6-9------||
|----------|-1-4---------2-5-|---------3-6-----|-----5-8----------||
|----------|-----------------|-----------------|------------------||


 "Now, while embodying.."
  A little slower Q.=151
  N.C.
              |------6-------|  |------6-------|    |------6-------|  |------6-------|
  W           E  E  E  E  E  E  E  E  E  E  E  E    E  E  E  E  E  E  E  E  E  E  E  E
|----------|-------------------------------------|-------------------------------------|
|----------|-------------------------------------|-------------------------------------|
|----------|-------------------------------------|-------------------------------------|
|----------|--------------------5h=8p=5----------|--------------------5h=8p=5----------|
|----------|-----------5h=8p=5-----------5h=8p=5-|-----------5h=8p=5-----------5h=8p=5-|
|----------|--5h=8p=5----------------------------|--5h=8p=5----------------------------|
|
|             |------6-------|  |------6-------|    |------6-------|  |------6-------|
| W           E  E  E  E  E  E  E  E  E  E  E  E    E  E  E  E  E  E  E  E  E  E  E  E
|----------|-------------------------------------|-------------------------------------|
|----------|-------------------------------------|-------------------------------------|
|----------|-------------------------------------|-------------------------------------|
|----------|-------------------10h13p10----------|-------------------10h13p10----------|
|----------|----------10h13p10----------10h13p10-|----------10h13p10----------10h13p10-|
|----------|-10h13p10----------------------------|-10h13p10----------------------------|


  |-----6-----| |-----6-----|   |-----6-----| |-----6-----|
  E  E E E  E E E  E E E  E E   E  E E E  E E E  E E E  E E
|-----------------------------|--------------------------------||
|-----------------------------|--------------------------------||
|-----------------------------|--------------------------------||
|---------------4h=7p4--------|---------------3h=6p3-----------||
|--------4h=7p4--------4h=7p4-|--------3h=6p3--------3h=6p3----||
|-4h=7p4----------------------|-3h=6p3-------------------------||
|
| |-----6-----| |-----6-----|   |-----6-----| |-----6-----|
| E  E E E  E E E  E E E  E E   E  E E E  E E E  E E E  E E
|-----------------------------|--------------------------------||
|-----------------------------|--------------------------------||
|-----------------------------|--------------------------------||
|---------------9h12p9--------|---------------8h11p8-----------||
|--------9h12p9--------9h12p9-|--------8h11p8--------8h11p8----||
|-9h12p9----------------------|-8h11p8-------------------------||


 Fill
  Even slower Q.=131
  G5            A5             Bb5             N.C.
 6/8
  Q   H         Q   H          Q    H          E E E E E E
|-------------|--------------|---------------|-------------||
|-------------|--------------|---------------|-------------||
|-------------|--------------|---------------|-------------||
|-5-----------|-7------------|-8-------------|-8-7-5-----5-||
|-5-----------|-7------------|-8-------------|-------7-8---||
|-5-----------|-7------------|-8-------------|-------------||
|
| PM|   PM  PM----|   PM   PM----|    PM   PM
| E E E E E E   E E E E  E E   E E  E E  E E   E E E E E E
|-------------|--------------|---------------|-------------||
|-------------|--------------|---------------|-------------||
|-------------|--------------|---------------|-------------||
|-------------|--------------|---------------|-8-7-5-----5-||
|-5---7---8---|-7---8---10---|-8---10---12---|-------7-8---||
|-5-5---5---5-|-7-7---7----7-|-8-8----8----8-|-------------||


   "Damnation.."
    G5N.C.        A5N.C.         BbN.C.          N.C.
      PM  PM  PM    PM  PM   PM    PM   PM   PM
    E E E E E E   E E E E  E E   E E  E E  E E    E  E E  E  E E
||--------------|--------------|---------------|-----------------|
||o-------------|--------------|---------------|-----------------|
||--------------|--------------|---------------|-----------------|
||--------------|--------------|---------------|-12-10-8---------|
||o-5---7---8---|-7---8---10---|-8---10---12---|---------12-10-8-|
||--5-5---5---5-|-7-7---7----7-|-8-8----8----8-|-----------------|
|
|     PM  PM  PM    PM  PM   PM    PM   PM   PM
|   E E E E E E   E E E E  E E   E E  E E  E E    E  E E  E  E E
||--------------|--------------|---------------|-----------------|
||o-------------|--------------|---------------|-----------------|
||--------------|--------------|---------------|-----------------|
||--------------|--------------|---------------|-12-10-8---------|
||o-5---7---8---|-7---8---10---|-8---10---12---|---------12-10-8-|
||--5-5---5---5-|-7-7---7----7-|-8-8----8----8-|-----------------|


  1.
  G5N.C.        A5N.C.         BbN.C.          N.C.
    PM  PM  PM    PM  PM   PM    PM   PM   PM
  E E E E E E   E E E E  E E   E E  E E  E E   E E E E E E
|-------------|--------------|---------------|--------------||
|-------------|--------------|---------------|-------------o||
|-------------|--------------|---------------|--------------||
|-------------|--------------|---------------|-8-7-5-----5--||
|-5---7---8---|-7---8---10---|-8---10---12---|-------7-8---o||
|-5-5---5---5-|-7-7---7----7-|-8-8----8----8-|--------------||
|
|   PM  PM  PM    PM  PM   PM    PM   PM   PM
| E E E E E E   E E E E  E E   E E  E E  E E   E E E E E E
|-------------|--------------|---------------|--------------||
|-------------|--------------|---------------|-------------o||
|-------------|--------------|---------------|--------------||
|-------------|--------------|---------------|-8-7-5-----5--||
|-5---7---8---|-7---8---10---|-8---10---12---|-------7-8---o||
|-5-5---5---5-|-7-7---7----7-|-8-8----8----8-|--------------||


    2.uggy part Q=165
    DmN.C.DmG5/DN.D5 N.C.  DmG5/DN.D5 N.C.
   4/4
      PM|       PM   PM--|       PM   PM--|
    E E E E  E  E  E E   E E  E  E  E E E E
||---------------------|--------------------|
||o--------------------|--------------------|
||---------------------|--------------------|
||---------------------|--------------------|
||o-8-----8h10----12---|---8h10----12-------|
||--0-0-0-0-(0)-0--0-0-|-0-0-(0)-0--0-0-0-0-|
|
|     PM|       PM   PM--|       PM   PM--|
|   E E E E  E  E  E E   E E  E  E  E E E E
||---------------------|--------------------|
||o--------------------|--------------------|
||---------------------|--------------------|
||---------------------|--------------------|
||o-8-----8h10----12---|---8h10----12-------|
||--0-0-0-0-(0)-0--0-0-|-0-0-(0)-0--0-0-0-0-|


  DmN.C.DmG5/DN.D5 N.C.  DmG5/DN.D5 N.C.
    PM|       PM   PM--|       PM   PM--|
  E E E E  E  E  E E   E E  E  E  E E E E
|--------------------|----------------------||
|--------------------|---------------------o||
|--------------------|----------------------||
|--------------------|----------------------||
|-8-----8h10----12---|---8h10----12--------o||
|-0-0-0-0-(0)-0--0-0-|-0-0-(0)-0--0-0-0-0---||
|
|   PM|       PM   PM--|       PM   PM--|
| E E E E  E  E  E E   E E  E  E  E E E E
|--------------------|----------------------||
|--------------------|---------------------o||
|--------------------|----------------------||
|--------------------|----------------------||
|-8-----8h10----12---|---8h10----12--------o||
|-0-0-0-0-(0)-0--0-0-|-0-0-(0)-0--0-0-0-0---||


   "Why scream of.."
    Up, up, up Q.=142
    N.C.
   6/8
    S S S S S S S S S S S S   S S S S S S S S  S  S  S  S
||--------------------------|-----------------------------|
||o-------------------------|-----------------------------|
||--------------------------|-----------------------------|
||--------------------------|-----------------------------|
||o---------7-7-7-7-8-8-8-8-|---------8-8-8-8-10-10-10-10-|
||--5-5-5-5-----------------|-7-7-7-7---------------------|
|
|   S S S S S S S S S S S S   S S S S S S S S  S  S  S  S
||--------------------------|-----------------------------|
||o-------------------------|-----------------------------|
||--------------------------|-----------------------------|
||--------------------------|-----------------------------|
||o---------7-7-7-7-8-8-8-8-|---------8-8-8-8-10-10-10-10-|
||--5-5-5-5-----------------|-7-7-7-7---------------------|


  S S S S  S  S  S  S  S  S  S  S   E E E E E E
|---------------------------------|---------------|
|---------------------------------|---------------|
|---------------------------------|---------------|
|---------------------------------|-8-7-5-----5---|
|---------10-10-10-10-12-12-12-12-|-------8-7-----|
|-8-8-8-8-------------------------|---------------|
|
| S S S S  S  S  S  S  S  S  S  S   E E E E E E
|---------------------------------|---------------|
|---------------------------------|---------------|
|---------------------------------|---------------|
|---------------------------------|-8-7-5-----5---|
|---------10-10-10-10-12-12-12-12-|-------8-7-----|
|-8-8-8-8-------------------------|---------------|


  N.C.
  S S S S S S S S S S S S   S S S S S S S S  S  S  S  S
|-------------------------|-----------------------------|
|-------------------------|-----------------------------|
|-------------------------|-----------------------------|
|-------------------------|-----------------------------|
|---------7-7-7-7-8-8-8-8-|---------8-8-8-8-10-10-10-10-|
|-5-5-5-5-----------------|-7-7-7-7---------------------|
|
| S S S S S S S S S S S S   S S S S S S S S  S  S  S  S
|-------------------------|-----------------------------|
|-------------------------|-----------------------------|
|-------------------------|-----------------------------|
|-------------------------|-----------------------------|
|---------7-7-7-7-8-8-8-8-|---------8-8-8-8-10-10-10-10-|
|-5-5-5-5-----------------|-7-7-7-7---------------------|


  S S S S  S  S  S  S  S  S  S  S    E  E E  E  E E
|---------------------------------|-------------------||
|---------------------------------|------------------o||
|---------------------------------|-------------------||
|---------------------------------|-12-10-8-----------||
|---------10-10-10-10-12-12-12-12-|---------12-10-8--o||
|-8-8-8-8-------------------------|-------------------||
|
| S S S S  S  S  S  S  S  S  S  S    E  E E  E  E E
|---------------------------------|-------------------||
|---------------------------------|------------------o||
|---------------------------------|-------------------||
|---------------------------------|-12-10-8-----------||
|---------10-10-10-10-12-12-12-12-|---------12-10-8--o||
|-8-8-8-8-------------------------|-------------------||


   "Now, with confidence.."
    Abcdefg Q.=133
    Bb5  Fadd11/Bb    Bb5       C5
                      PM----|                        PM------|
    Q  E  Q   E    Q  E E E E    Q   E  Q   E    Q   E  E  E  E
||--------------|-------------|---------------|-----------------|
||o------10--10-|-10----------|--------13--13-|-13--------------|
||-------10--10-|-10----------|--------12--12-|-12--------------|
||--8--8--8---8-|--8----------|-10--10-10--10-|-10--------------|
||o-8--8--8---8-|--8--8-8-8-8-|-10--10-10--10-|-10--10-10-10-10-|
||--8--8--8---8-|--8--8-8-8-8-|-10--10-10--10-|-10--10-10-10-10-|
|
|                     PM----|                        PM------|
|   Q  E  Q   E    Q  E E E E    Q   E  Q   E    Q   E  E  E  E
||--------------|-------------|---------------|-----------------|
||o------10--10-|-10----------|--------13--13-|-13--------------|
||-------10--10-|-10----------|--------12--12-|-12--------------|
||--8--8--8---8-|--8----------|-10--10-10--10-|-10--------------|
||o-8--8--8---8-|--8--8-8-8-8-|-10--10-10--10-|-10--10-10-10-10-|
||--8--8--8---8-|--8--8-8-8-8-|-10--10-10--10-|-10--10-10-10-10-|


  D5    F          D5    F/D        D5    (F)        D5    (F/D)
  PM--|            PM--|            PM--|            PM--|
  E E E  E  E  E   E E E  E  E  E   E E E  E  E  E   E E E  E  E  E
|----------------|----------------|----------------|-----------------||
|-------13-13-13-|-------10-10-10-|-------13-------|-------10-------o||
|-------14-14-14-|-------10-10-10-|----------14----|----------10-----||
|-------15-15-15-|-------12-12-12-|-------------15-|-------------12--||
|-0-0-0----------|-0-0-0----------|-0-0-0----------|-0-0-0----------o||
|-0-0-0----------|-0-0-0----------|-0-0-0----------|-0-0-0-----------||
|
| PM--|            PM--|            PM--|            PM--|
| E E E  E  E  E   E E E  E  E  E   E E E  E  E  E   E E E  E  E  E
|----------------|----------------|----------------|-----------------||
|-------13-13-13-|-------10-10-10-|-------13-------|-------10-------o||
|-------14-14-14-|-------10-10-10-|----------14----|----------10-----||
|-------15-15-15-|-------12-12-12-|-------------15-|-------------12--||
|-0-0-0----------|-0-0-0----------|-0-0-0----------|-0-0-0----------o||
|-0-0-0----------|-0-0-0----------|-0-0-0----------|-0-0-0-----------||


  Bb5      Fadd11/Bb        Bb5
  Gtrs I, II
                             PM------|
   Q     E  Q     E    Q     E  E  E  E
|-------------------|-------------------|
|----------10----10-|-10----------------|
|----------10----10-|-10----------------|
|--8-----8--8-----8-|--8----------------|
|--8-----8--8-----8-|--8-----8--8--8--8-|
|--8-----8--8-----8-|--8-----8--8--8--8-|
|
| Gtr III
|  E  E  E  E  E  E    E  E  E  E  E  E
|-------------------|-------------------|
|-------------------|-------------------|
|-10-10-10-10-10-10-|-10-10-10-10-10-10-|
|--x--x--x--x--x--x-|--x--x--x--x--x--x-|
|--8--8--8--8--8--8-|--8--8--8--8--8--8-|
|-------------------|-------------------|


  C5
                             PM------|
   Q     E  Q     E    Q     E  E  E  E
|-------------------|-------------------|
|----------13----13-|-13----------------|
|----------12----12-|-12----------------|
|-10----10-10----10-|-10----------------|
|-10----10-10----10-|-10----10-10-10-10-|
|-10----10-10----10-|-10----10-10-10-10-|
|
|  E  E  E  E  E  E    E  E  E  E  E  E
|-------------------|-------------------|
|-------------------|-------------------|
|-12-12-12-12-12-12-|-14s15-14s15-14s15-|
|--x--x--x--x--x--x-|--x--x--x--x--x--x-|
|-10-10-10-10-10-10-|-12s13-12s13-12s13-|
|-------------------|-------------------|


  D5     F          D5     F/D        D5     (F)        D5     (F/D)
  PM---|            PM---|            PM---|            PM---|
  E  E E  E  E  E   E  E E  E  E  E   E  E E  E  E  E   E  E E  E  E  E
|-----------------|-----------------|-----------------|-----------------|
|--------13-13-13-|--------10-10-10-|--------13-------|--------10-------|
|--------14-14-14-|--------10-10-10-|-----------14----|-----------10----|
|--------15-15-15-|--------12-12-12-|--------------15-|--------------12-|
|-0--0-0----------|-0--0-0----------|-0--0-0----------|-0--0-0----------|
|-0--0-0----------|-0--0-0----------|-0--0-0----------|-0--0-0----------|
|
| H.                H.                H.                H.
|-----------------|-----------------|-----------------|-----------------|
|-----------------|-----------------|-----------------|-----------------|
|-----------------|-----------------|-----------------|-----------------|
|-----------------|-----------------|-----------------|-----------------|
|-----------------|-----------------|-----------------|-----------------|
|-----------------|-----------------|-----------------|-----------------|


  Bb5  Fadd11/Bb    Bb5       C5
  Gtr III
                    PM----|                    PM------------|
  Q  E  Q   E    Q  E E E E    Q   E  Q   E    E  E  E  E  E  E
|-------------|-------------|---------------|-------------------||
|------10--10-|-10----------|--------13--13-|-------------------||
|------10--10-|-10----------|--------12--12-|-------------------||
|-8--8--8---8-|--8----------|-10--10-10--10-|-------------------||
|-8--8--8---8-|--8--8-8-8-8-|-10--10-10--10-|-10-10-10-10-10-10-||
|-8--8--8---8-|--8--8-8-8-8-|-10--10-10--10-|-10-10-10-10-10-10-||
|
| Gtr IV
|                   PM----|                    PM------------|
| Q  E  Q   E    Q  E E E E    Q   E  Q   E    E  E  E  E  E  E
|-------------|-------------|---------------|-------------------||
|------10--10-|-10----------|--------13--13-|-------------------||
|------10--10-|-10----------|--------12--12-|-------------------||
|-8--8--8---8-|--8----------|-10--10-10--10-|-------------------||
|-8--8--8---8-|--8--8-8-8-8-|-10--10-10--10-|-10-10-10-10-10-10-||
|-8--8--8---8-|--8--8-8-8-8-|-10--10-10--10-|-10-10-10-10-10-10-||


   "So I let go, and with.."
    D5
    PM--------------------|       PM---------------
    S S S S S S S S S S S S   +E  S S E S S S S E
||--------------------------|---------------------|
||o-------------------------|---------------------|
||--------------------------|---------------------|
||--------------------------|---------------------|
||o-0-0-0-0-0-0-0-0-0-0-0-0-|-(0)-0-0-0-0-0-0-0-0-|
||--0-0-0-0-0-0-0-0-0-0-0-0-|-(0)-0-0-0-0-0-0-0-0-|
|
|   PM--------------------|       PM---------------
|   S S S S S S S S S S S S   +E  S S E S S S S E
||--------------------------|---------------------|
||o-------------------------|---------------------|
||--------------------------|---------------------|
||--------------------------|---------------------|
||o-0-0-0-0-0-0-0-0-0-0-0-0-|-(0)-0-0-0-0-0-0-0-0-|
||--0-0-0-0-0-0-0-0-0-0-0-0-|-(0)-0-0-0-0-0-0-0-0-|


                       1.
 ---------------------------------------|
  S S E S S S S E S S   E S S S S E S S E
|---------------------|----------------------||
|---------------------|---------------------o||
|---------------------|----------------------||
|---------------------|----------------------||
|-0-0-0-0-0-0-0-0-0-0-|-0-0-0-0-0-0-0-0-0---o||
|-0-0-0-0-0-0-0-0-0-0-|-0-0-0-0-0-0-0-0-0----||
|
|---------------------------------------|
| S S E S S S S E S S   E S S S S E S S E
|---------------------|----------------------||
|---------------------|---------------------o||
|---------------------|----------------------||
|---------------------|----------------------||
|-0-0-0-0-0-0-0-0-0-0-|-0-0-0-0-0-0-0-0-0---o||
|-0-0-0-0-0-0-0-0-0-0-|-0-0-0-0-0-0-0-0-0----||


  2.
  D5
  PM--------------------------------|
  E Q  E Q    S S S S S S S S S S S S
|-----------|-------------------------|
|-----------|-------------------------|
|-----------|-------------------------|
|-----------|-------------------------|
|-0----0----|-0-0-0-0-0-0-0-0-0-0-0-0-|
|-0----0----|-0-0-0-0-0-0-0-0-0-0-0-0-|
|
| PM--------------------------------|
| E Q  E Q    S S S S S S S S S S S S
|-----------|-------------------------|
|-----------|-------------------------|
|-----------|-------------------------|
|-----------|-------------------------|
|-0----0----|-0-0-0-0-0-0-0-0-0-0-0-0-|
|-0----0----|-0-0-0-0-0-0-0-0-0-0-0-0-|


                  PM----------------------|
  +H.        +Q   S S E S S E   E E E E E E
|----------|------------------|--------------||
|----------|------------------|--------------||
|----------|------------------|--------------||
|----------|------------------|--------------||
|-(0)------|-(0)--0-0-0-0-0-0-|-0-0-0-0-0-0--||
|-(0)------|-(0)--0-0-0-0-0-0-|-0-0-0-0-0-0--||
|
|                 PM----------------------|
| +H.        +Q   S S E S S E   E E E E E E
|----------|------------------|--------------||
|----------|------------------|--------------||
|----------|------------------|--------------||
|----------|------------------|--------------||
|-(0)------|-(0)--0-0-0-0-0-0-|-0-0-0-0-0-0--||
|-(0)------|-(0)--0-0-0-0-0-0-|-0-0-0-0-0-0--||


 "..return me.."
  (F)            (Am/E)         (F/E)
   Q    Q   Q     Q    Q   Q     Q    Q   Q     Q    Q   Q
|--------------|--------------|--------------|--------------|
|-13-----------|------13------|--------------|--------------|
|------14------|----------14--|------14------|------14------|
|----------15--|--------------|----------15--|----------15--|
|--------------|-19-----------|-19-----------|-19-----------|
|--------------|--------------|--------------|--------------|
|
|  H.            +H.            +H.            +H.
|--------------|--------------|--------------|--------------|
|--------------|--------------|--------------|--------------|
|--------------|--------------|--------------|--------------|
|--0-----------|-(0)----------|-(0)----------|-(0)----------|
|--0-----------|-(0)----------|-(0)----------|-(0)----------|
|--0-----------|-(0)----------|-(0)----------|-(0)----------|


  (F)            (Am/E)         (F/E)
   Q    Q   Q     Q    Q   Q     Q    Q   Q     Q    Q   Q
|--------------|--------------|--------------|--------------||
|-13-----------|------13------|--------------|--------------||
|------14------|----------14--|------14------|------14------||
|----------15--|--------------|----------15--|----------15--||
|--------------|-19-----------|-19-----------|-19-----------||
|--------------|--------------|--------------|--------------||
|
| +H.            +H.            +H.            +H.
|--------------|--------------|--------------|--------------||
|--------------|--------------|--------------|--------------||
|--------------|--------------|--------------|--------------||
|-(0)----------|-(0)----------|-(0)----------|-(0)----------||
|-(0)----------|-(0)----------|-(0)----------|-(0)----------||
|-(0)----------|-(0)----------|-(0)----------|-(0)----------||


 Breakdown fill
  D5
  PM-----------------------------------------------------|
  S S E S S E S S E   S S E H      H.        S S E S S E Q
|-------------------|------------|---------|----------------||
|-------------------|------------|---------|----------------||
|-------------------|------------|---------|----------------||
|-------------------|------------|---------|----------------||
|-0-0-0-0-0-0-0-0-0-|-0-0-0------|---------|-0-0-0-0-0-0----||
|-0-0-0-0-0-0-0-0-0-|-0-0-0------|---------|-0-0-0-0-0-0----||
|
| PM-----------------------------------------------------|
| S S E S S E S S E   S S E H      H.        S S E S S E Q
|-------------------|------------|---------|----------------||
|-------------------|------------|---------|----------------||
|-------------------|------------|---------|----------------||
|-------------------|------------|---------|----------------||
|-0-0-0-0-0-0-0-0-0-|-0-0-0------|---------|-0-0-0-0-0-0----||
|-0-0-0-0-0-0-0-0-0-|-0-0-0------|---------|-0-0-0-0-0-0----||


   "Bastard child, will burn.."
    D5
     E    E  E  E  E  E    E    E  E  E  E  E
||----------------------|---------------------|
||o-17------------------|-17------------------|
||-------17----------17-|------17----------17-|
||----------19-17h19----|---------19-17h19----|
||o---------------------|---------------------|
||----------------------|---------------------|
|
|    PM----------------------------------------
|    S S  E  E  E  E  E    S S  E  H
||----------------------|---------------------|
||o---------------------|---------------------|
||----------------------|---------------------|
||----------------------|---------------------|
||o--0-0--0--0--0--0--0-|--0-0--0-------------|
||---0-0--0--0--0--0--0-|--0-0--0-------------|


   E   E  E  E  E  E    E    E  E  E  E  E
|--------------------|-15---------15-------|
|-17-----------------|------17-------17----|
|-----17----------17-|---------17-------17-|
|--------19-17h19----|---------------------|
|--------------------|---------------------|
|--------------------|---------------------|
|
|---------------------------------------|
|  H.                   S S  E  E  E  E  E
|--------------------|---------------------|
|--------------------|---------------------|
|--------------------|---------------------|
|--------------------|---------------------|
|--------------------|--0-0--0--0--0--0--0-|
|--------------------|--0-0--0--0--0--0--0-|


   E    E  E  E  E  E    E   E  E  E  E  E
|---------------------|--------------------|
|-17------------------|-17-----------------|
|------17----------17-|-----17----------17-|
|---------19-17h19----|--------19-17h19----|
|---------------------|--------------------|
|---------------------|--------------------|
|
|  PM---------------------------------------
|  S S  E  H             H.
|---------------------|--------------------|
|---------------------|--------------------|
|---------------------|--------------------|
|---------------------|--------------------|
|--0-0--0-------------|--------------------|
|--0-0--0-------------|--------------------|


   E    E  E  E  E  E    E  E  E  E  E  E
|---------------------|-15-------15---------||
|-17------------------|----17-------17-----o||
|------17----------17-|-------17-------17---||
|---------19-17h19----|---------------------||
|---------------------|--------------------o||
|---------------------|---------------------||
|
|--------------------------------------|
|  S S  E  E  E  E  E    E  E  E  E  E  E
|---------------------|---------------------||
|---------------------|--------------------o||
|---------------------|---------------------||
|---------------------|---------------------||
|--0-0--0--0--0--0--0-|--0--0--0--0--0--0--o||
|--0-0--0--0--0--0--0-|--0--0--0--0--0--0---||


 Intro reprise
  A Tempo Q.=155
  N.C.
  Gtr I
  E  E E E E E   H.             E  E E E E E   E E E E E  E   H.
|--------------|--------------|--------------|--------------|-------|
|--------------|--------------|--------------|--------------|-------|
|----------3-6-|--------------|----------5-8-|---------7-11-|-------|
|------2-5-----|--------------|------4-7-----|-----6-9------|-------|
|-1--4---------|--------------|-3--6---------|-5-8----------|-------|
|--------------|--------------|--------------|--------------|-------|
|
| Gtr II
| H.             E  E E E E E   H.             E E E E E  E   H.
|--------------|--------------|--------------|--------------|-------|
|--------------|--------------|--------------|--------------|-------|
|--------------|----------4-7-|--------------|---------7-11-|-------|
|--------------|------3-6-----|--------------|-----6-9------|-------|
|--------------|-2--5---------|--------------|-5-8----------|-------|
|--------------|--------------|--------------|--------------|-------|


    N.C.
    E E E E E E   E E E E E E   E E E E E E   E E E E E  E
||--------------|-------------|-------------|---------------||
||o-------------|-------------|-------------|--------------o||
||----------3-6-|---------4-7-|---------5-8-|---------7-11--||
||------2-5-----|-----3-6-----|-----4-7-----|-----6-9-------||
||o-1-4---------|-2-5---------|-3-6---------|-5-8----------o||
||--------------|-------------|-------------|---------------||
|
|   E E E E E E   E E E E E E   E E E E E E   E E E E E  E
||--------------|-------------|-------------|---------------||
||o-------------|-------------|-------------|--------------o||
||----------3-6-|---------4-7-|---------5-8-|---------7-11--||
||------2-5-----|-----3-6-----|-----4-7-----|-----6-9-------||
||o-1-4---------|-2-5---------|-3-6---------|-5-8----------o||
||--------------|-------------|-------------|---------------||


 "Write the spiral out.."
  N.C.
 4/4
   |------6-------|  |------6-------|    |------6-------|  |------6-------|
   E  E  E  E  E  E  E  E  E  E  E  E    E  E  E  E  E  E  E  E  E  E  E  E
|-------------------------------------|-------------------------------------|
|-------------------------------------|-------------------------------------|
|-------------------------------------|-------------------------------------|
|--------------------5h=8p=5----------|--------------------5h=8p=5----------|
|-----------5h=8p=5-----------5h=8p=5-|-----------5h=8p=5-----------5h=8p=5-|
|--5h=8p=5----------------------------|--5h=8p=5----------------------------|
|
|  |------6-------|  |------6-------|    |------6-------|  |------6-------|
|  E  E  E  E  E  E  E  E  E  E  E  E    E  E  E  E  E  E  E  E  E  E  E  E
|-------------------------------------|-------------------------------------|
|-------------------------------------|-------------------------------------|
|-------------------------------------|-------------------------------------|
|-------------------10h13p10----------|-------------------10h13p10----------|
|----------10h13p10----------10h13p10-|----------10h13p10----------10h13p10-|
|-10h13p10----------------------------|-10h13p10----------------------------|


  |-----6-----| |-----6-----|   |-----6-----| |-----6-----|
  E  E E E  E E E  E E E  E E   E  E E E  E E E  E E E  E E
|-----------------------------|------------------------------||
|-----------------------------|------------------------------||
|-----------------------------|------------------------------||
|---------------4h=7p4--------|---------------3h=6p3---------||
|--------4h=7p4--------4h=7p4-|--------3h=6p3--------3h=6p3--||
|-4h=7p4----------------------|-3h=6p3-----------------------||
|
| |-----6-----| |-----6-----|   |-----6-----| |-----6-----|
| E  E E E  E E E  E E E  E E   E  E E E  E E E  E E E  E E
|-----------------------------|------------------------------||
|-----------------------------|------------------------------||
|-----------------------------|------------------------------||
|---------------9h12p9--------|---------------8h11p8---------||
|--------9h12p9--------9h12p9-|--------8h11p8--------8h11p8--||
|-9h12p9----------------------|-8h11p8-----------------------||


   "Accepting hope in a.."
    Hijklmnop Q.=133
    N.C.
   6/8
       PM  PM  PM     PM  PM  PM    PM  PM  PM    PM  PM  PM
     E E E E E E    E E E E E E   E E E E E E   E E E E E E   6x
||---------------|--------------|-------------|---------------||
||o--------------|--------------|-------------|--------------o||
||-----------7---|----------7---|---------7---|---------7-----||
||-------3-------|------3-------|-----3-------|-----3---------||
||o--6-----------|--6-----------|-5-----------|-5------------o||
||-----5---5---5-|----5---5---5-|---5---5---5-|---5---5---5---||
|
|      PM  PM  PM     PM  PM  PM    PM  PM  PM    PM  PM  PM
|    E E E E E E    E E E E E E   E E E E E E   E E E E E E   6x
||---------------|--------------|-------------|---------------||
||o--------------|--------------|-------------|--------------o||
||---------------|--------------|-------------|---------------||
||-------7---8---|------7---8---|-----7---8---|-----7---8-----||
||o-10-----------|-10-----------|-8-----------|-8------------o||
||-----5---5---5-|----5---5---5-|---5---5---5-|---5---5---5---||


    N.C.
          PM|     PM|     PM|         PM|     PM|     PM|
     S  S S S S S S S S S S S    S  S S S S S S S S S S S
||----------------------------|---------------------------|
||o---------------------------|---------------------------|
||--------------------7-7-----|-------------------7-7-----|
||------------3-3-------------|-----------3-3-------------|
||o--6--6---------------------|--6--6---------------------|
||--------5-5-----5-5-----5-5-|-------5-5-----5-5-----5-5-|
|
|         PM|     PM|     PM|         PM|     PM|     PM|
|    S  S S S S S S S S S S S    S  S S S S S S S S S S S
||----------------------------|---------------------------|
||o---------------------------|---------------------------|
||----------------------------|---------------------------|
||------------7-7-----8-8-----|-----------7-7-----8-8-----|
||o-10-10---------------------|-10-10---------------------|
||--------5-5-----5-5-----5-5-|-------5-5-----5-5-----5-5-|


      PM|     PM|     PM|       PM|     PM|     PM|
  S S S S S S S S S S S S   S S S S S S S S S S S S
|-------------------------|----------------------------||
|-------------------------|---------------------------o||
|-----------------7-7-----|-----------------7-7--------||
|---------3-3-------------|---------3-3----------------||
|-5-5---------------------|-5-5-----------------------o||
|-----5-5-----5-5-----5-5-|-----5-5-----5-5-----5-5----||
|
|     PM|     PM|     PM|       PM|     PM|     PM|
| S S S S S S S S S S S S   S S S S S S S S S S S S
|-------------------------|----------------------------||
|-------------------------|---------------------------o||
|-------------------------|----------------------------||
|---------7-7-----8-8-----|---------7-7-----8-8--------||
|-8-8---------------------|-8-8-----------------------o||
|-----5-5-----5-5-----5-5-|-----5-5-----5-5-----5-5----||


 "..destroy.."
  N.C.
  Gtr I
    PM  PM   PM    PM   PM   PM     PM   PM   PM
  E E E E  E E   E E  E E  E E    E E  E E  E E
|--------------|---------------|----------------|
|--------------|---------------|----------------|
|--------------|---------------|----------------|
|--------------|---------------|----------------|
|-5---7----8---|-7----8---10---|--8---10---12---|
|---5---5----5-|---7----7----7-|----8----8----8-|
|
| Gtr II
| Q   Q    Q     Q    Q    Q      Q    Q    Q
|--------------|---------------|----------------|
|--------------|---------------|----------------|
|-7---9---10---|-9---10---12---|-10---12---14---|
|-x---x----x---|-x----x----x---|--x----x----x---|
|-5---7----8---|-7----8---10---|--8---10---12---|
|--------------|---------------|----------------|


  N.C.
   E  E E  E  E E    E  E  E  E  E  E    E  E E  E  E E    E  E  E  E  E  E
|-----------------|-------------------|-----------------|-------------------||
|-----------------|-------------------|-----------------|-------------------||
|-----------------|-------------------|-----------------|-------------------||
|--8--7-5-------5-|-12-10--8----------|--8--7-5-------5-|-12-10--8----------||
|----------7--8---|----------12-10--8-|----------7--8---|----------12-10--8-||
|-----------------|-------------------|-----------------|-------------------||
|
|  E  E E  E  E E    E  E  E  E  E  E    E  E E  E  E E    E  E  E  E  E  E
|-----------------|-------------------|-----------------|-------------------||
|-----------------|-------------------|-----------------|-------------------||
|-----------------|-------------------|-----------------|-------------------||
|-12-10-8-------8-|-15-14-12----------|-12-10-8-------8-|-15-14-12----------||
|---------10-12---|----------15-13-12-|---------10-12---|----------15-13-12-||
|-----------------|-------------------|-----------------|-------------------||


 "With confidence, this is.."
  Fadd11/Bb                         C5
  Gtr III
                                                     PM------------|
   Q   E  Q   E    Q   E  E  E  E    Q   E  Q   E    E  E  E  E  E  E
|---------------|-----------------|---------------|-------------------|
|-10--10-10--10-|-10--10-10-10-10-|-13--13-13--13-|-------------------|
|-10--10-10--10-|-10--10-10-10-10-|-12--12-12--12-|-------------------|
|--8---8--8---8-|--8---8--8--8--8-|-10--10-10--10-|-------------------|
|--8---8--8---8-|--8---8--8--8--8-|-10--10-10--10-|-10-10-10-10-10-10-|
|--8---8--8---8-|--8---8--8--8--8-|-10--10-10--10-|-10-10-10-10-10-10-|
|
| Gtr IV
|                                                    PM------------|
|  Q   E  Q   E    Q   E  E  E  E    Q   E  Q   E    E  E  E  E  E  E
|---------------|-----------------|---------------|-------------------|
|-10--10-10--10-|-10--10-10-10-10-|-13--13-13--13-|-------------------|
|-10--10-10--10-|-10--10-10-10-10-|-12--12-12--12-|-------------------|
|--8---8--8---8-|--8---8--8--8--8-|-10--10-10--10-|-------------------|
|--8---8--8---8-|--8---8--8--8--8-|-10--10-10--10-|-10-10-10-10-10-10-|
|--8---8--8---8-|--8---8--8--8--8-|-10--10-10--10-|-10-10-10-10-10-10-|


  D5
  H.        +H.        +H.        +H.
|---------|----------|----------|--------||
|---------|----------|----------|--------||
|---------|----------|----------|--------||
|-0-------|-(0)------|-(0)------|-(0)----||
|-0-------|-(0)------|-(0)------|-(0)----||
|-0-------|-(0)------|-(0)------|-(0)----||
|
| H.        +H.        +H.        +H.
|---------|----------|----------|--------||
|---------|----------|----------|--------||
|---------|----------|----------|--------||
|-0-------|-(0)------|-(0)------|-(0)----||
|-0-------|-(0)------|-(0)------|-(0)----||
|-0-------|-(0)------|-(0)------|-(0)----||


 Guitar Solo
  Fadd11/Bb
   Q     E  Q     E    Q     E  E  E  E
|-------------------|-------------------|
|-10----10-10----10-|-10----10-10-10-10-|
|-10----10-10----10-|-10----10-10-10-10-|
|--8-----8--8-----8-|--8-----8--8--8--8-|
|--8-----8--8-----8-|--8-----8--8--8--8-|
|--8-----8--8-----8-|--8-----8--8--8--8-|
|
|  E  E  E  E  E  E    E  E  E  E  E  E
|-------------------|-------------------|
|-------------18----|-------------18----|
|-14h15-14h15----15-|-14h15-14h15----15-|
|-------------------|-------------------|
|-------------------|-------------------|
|-------------------|-------------------|


  C5
   Q     E  Q     E    Q     E  E  E  E
|-------------------|-------------------|
|-13----13-13----13-|-13----13-13-13-13-|
|-12----12-12----12-|-12----12-12-12-12-|
|-10----10-10----10-|-10----10-10-10-10-|
|-10----10-10----10-|-10----10-10-10-10-|
|-10----10-10----10-|-10----10-10-10-10-|
|
|  E  E  E  E  E  E    E  E  E  E  E  E
|-------------------|-------------------|
|-------------18----|-------------18----|
|-14h15-14h15----15-|-14h15-14h15----15-|
|-------------------|-------------------|
|-------------------|-------------------|
|-------------------|-------------------|


  D5       (F)        D5      (F/D)      D5       (F)        D5      (F/D)
   PM---|              PM---|              PM---|             PM---|
   E  E  E  E  E  E    E  E E  E  E  E     E  E E  E  E  E    E  E E  E  E  E
|-------------------|------------------|-------------------|------------------|
|----------13-------|---------10-------|----------13-------|---------10-------|
|-------------14----|------------10----|-------------14----|------------10----|
|----------------15-|---------------12-|----------------15-|---------------12-|
|--0--0--0----------|--0--0-0----------|---0--0-0----------|--0--0-0----------|
|--0--0--0----------|--0--0-0----------|---0--0-0----------|--0--0-0----------|
|
|  E  E  E  E  E  E    H.                 +H.                 H.
|-------------------|------------------|-------------------|------------------|
|-------------------|------------------|-------------------|------------------|
|-14h15-14h15-14----|------------------|-------------------|------------------|
|----------------17-|-15---------------|-(15)--------------|-17---------------|
|-------------------|------------------|-------------------|------------------|
|-------------------|------------------|-------------------|------------------|


  Fadd11/Bb
   Q     E  Q     E    Q     E  E  E  E
|-------------------|-------------------|
|-10----10-10----10-|-10----10-10-10-10-|
|-10----10-10----10-|-10----10-10-10-10-|
|--8-----8--8-----8-|--8-----8--8--8--8-|
|--8-----8--8-----8-|--8-----8--8--8--8-|
|--8-----8--8-----8-|--8-----8--8--8--8-|
|
|  E  E  E  E  E  E    E  E  E  E  E  E
|-------------------|-------------------|
|-------------18----|-------------18----|
|-14h15-14h15----15-|-14h15-14h15----15-|
|-------------------|-------------------|
|-------------------|-------------------|
|-------------------|-------------------|


  C5
   Q     E  Q     E    Q     E  E  E  E
|-------------------|-------------------|
|-13----13-13----13-|-13----13-13-13-13-|
|-12----12-12----12-|-12----12-12-12-12-|
|-10----10-10----10-|-10----10-10-10-10-|
|-10----10-10----10-|-10----10-10-10-10-|
|-10----10-10----10-|-10----10-10-10-10-|
|
|  E  E  E  E  E  E    E  E  E  E  E  E
|-------------------|-------------------|
|-------------18----|-------------18----|
|-14h15-14h15----15-|-14h15-14h15----15-|
|-------------------|-------------------|
|-------------------|-------------------|
|-------------------|-------------------|


  D5       (F)        D5      (F/D)      D5       (F)        D5       (F/D)
   PM---|              PM---|              PM---|              PM---|
   E  E  E  E  E  E    E  E E  E  E  E     E  E E  E  E  E     E  E E  E  E  E
|-------------------|------------------|-------------------|-------------------|
|----------13-------|---------10-------|----------13-------|----------10-------|
|-------------14----|------------10----|-------------14----|-------------10----|
|----------------15-|---------------12-|----------------15-|----------------12-|
|--0--0--0----------|--0--0-0----------|---0--0-0----------|---0--0-0----------|
|--0--0--0----------|--0--0-0----------|---0--0-0----------|---0--0-0----------|
|
|  E  E  E  E  E  E    H.                 +H.                 +H.
|-------------------|------------------|-------------------|-------------------|
|-------------------|------------------|-------------------|-------------------|
|-14h15-14h15-14----|------------------|-------------------|-------------------|
|----------------17-|-15---------------|-(15)--------------|-(15)--------------|
|-------------------|------------------|-------------------|-------------------|
|-------------------|------------------|-------------------|-------------------|


  Fadd11/Bb
   Q           E  Q     E    Q    E  E  E  E
|-------------------------|------------------|
|-10----------10-10----10-|-10---10-10-10-10-|
|-10----------10-10----10-|-10---10-10-10-10-|
|--8-----------8--8-----8-|--8----8--8--8--8-|
|--8-----------8--8-----8-|--8----8--8--8--8-|
|--8-----------8--8-----8-|--8----8--8--8--8-|
|
|  S  S  S  S  E  E  E  E    H.
|-------------------------|------------------|
|----------------15h16p15-|------------------|
|----------15h17----------|-15---------------|
|-------15----------------|------------------|
|----17-------------------|------------------|
|-20----------------------|------------------|


  Fadd11/Bb
   Q    E  Q   E    Q    E  E  E  E
|----------------|-------------------|
|-13---13-13--13-|-13---13-13-13-13--|
|-12---12-12--12-|-12---12-12-12-12--|
|-10---10-10--10-|-10---10-10-10-10--|
|-10---10-10--10-|-10---10-10-10-10--|
|-10---10-10--10-|-10---10-10-10-10--|
|
|  H.               H.
|----------------|-------------------|
|----------------|-------------------|
|----------------|-------------------|
|-15-------------|-17----------------|
|----------------|-------------------|
|----------------|-------------------|


  D5       (F)        D5       (F/D)
   PM---|              PM---|
   E  E  E  E  E  E    E  E  E  E  E  E
|-------------------|-------------------|
|----------13-------|----------10-------|
|-------------14----|-------------10----|
|----------------15-|----------------12-|
|--0--0--0----------|--0--0--0----------|
|--0--0--0----------|--0--0--0----------|
|
|  E  E  E  E  E  E    E  E  E  E  E  E
|-------------------|-------------------|
|-------------18----|-------------18----|
|-14h15-14h15----15-|-14h15-14h15----15-|
|-------------------|-------------------|
|-------------------|-------------------|
|-------------------|-------------------|


  D5       (F)        D5       (F/D)
   PM---|              PM---|
   E  E  E  E  E  E    E  E  E  E  E  E
|-------------------|-------------------|
|----------13-------|----------10-------|
|-------------14----|-------------10----|
|----------------15-|----------------12-|
|--0--0--0----------|--0--0--0----------|
|--0--0--0----------|--0--0--0----------|
|
|  E  E  E  E  E  E    E  E  E  E  E  E
|-------------------|-------------------|
|-------------18----|-------------18----|
|-14h15-14h15----15-|-14h15-14h15----15-|
|-------------------|-------------------|
|-------------------|-------------------|
|-------------------|-------------------|


  Fadd11/Bb
   Q     E  Q     E    Q    E  E  E  E
|-------------------|------------------|
|-10----10-10----10-|-10---10-10-10-10-|
|-10----10-10----10-|-10---10-10-10-10-|
|--8-----8--8-----8-|--8----8--8--8--8-|
|--8-----8--8-----8-|--8----8--8--8--8-|
|--8-----8--8-----8-|--8----8--8--8--8-|
|
|  E  E  E  E  E  E    H.
|-------------------|------------------|
|-------------------|------------------|
|-14h15-14h15-14----|------------------|
|----------------17-|-15---------------|
|-------------------|------------------|
|-------------------|------------------|


  C5
   Q           E  Q     E    Q    E  E  E  E
|-------------------------|-------------------|
|-13----------13-13----13-|-13---13-13-13-13--|
|-12----------12-12----12-|-12---12-12-12-12--|
|-10----------10-10----10-|-10---10-10-10-10--|
|-10----------10-10----10-|-10---10-10-10-10--|
|-10----------10-10----10-|-10---10-10-10-10--|
|
|  S  S  S  S  E  E  E  E    H.
|-------------------------|-------------------|
|-------------------------|-------------------|
|----------17h19-20p19p17-|-------------------|
|-------19----------------|-20----------------|
|----20-------------------|-------------------|
|-22----------------------|-------------------|


  D5      (F)        D5      (F/D)
   PM---|             PM---|
   E  E E  E  E  E    E  E E  E  E  E
|------------------|------------------|
|---------13-------|---------10-------|
|------------14----|------------10----|
|---------------15-|---------------12-|
|--0--0-0----------|--0--0-0----------|
|--0--0-0----------|--0--0-0----------|
|
|  H.                 H.
|------------------|------------------|
|------------------|------------------|
|------------------|------------------|
|-15---------------|-17---------------|
|------------------|------------------|
|------------------|------------------|


  D5            (F)        D5       (F/D)
   PM--------|              PM---|
   E    E     E  E  E  E    E  E  E  E  E  E
|------------------------|--------------------|
|---------------13-------|----------10--------|
|------------------14----|-------------10-----|
|---------------------15-|----------------12--|
|--0----0-----0----------|--0--0--0-----------|
|--0----0-----0----------|--0--0--0-----------|
|
|  |---3---|
|  E  E    E  E  E  E  E    E  E  E  E  E  E
|------------------------|--------------------|
|------------15h16-15p13-|-------18-----------|
|-14h15p==14-------------|-14h15----15p14h15--|
|------------------------|--------------------|
|------------------------|--------------------|
|------------------------|--------------------|


  Fadd11/Bb
   Q        E  Q     E    Q     E  E  E  E
|----------------------|-------------------|
|-10-------10-10----10-|-10----10-10-10-10-|
|-10-------10-10----10-|-10----10-10-10-10-|
|--8--------8--8-----8-|--8-----8--8--8--8-|
|--8--------8--8-----8-|--8-----8--8--8--8-|
|--8--------8--8-----8-|--8-----8--8--8--8-|
|
|  |--3--|
|  E  E  E  E  E  E  E    E  E  E  E  E  E
|----------------------|-------------------|
|----------15h16-15p13-|-------18----------|
|-14h15p14-------------|-14h15----15p14h15-|
|----------------------|-------------------|
|----------------------|-------------------|
|----------------------|-------------------|


  C5
   Q     E  Q     E    Q     E  E  E  E
|-------------------|-------------------||
|-13----13-13----13-|-13----13-13-13-13-||
|-12----12-12----12-|-12----12-12-12-12-||
|-10----10-10----10-|-10----10-10-10-10-||
|-10----10-10----10-|-10----10-10-10-10-||
|-10----10-10----10-|-10----10-10-10-10-||
|
|  E  E  E  E  E  E    E  E  E  E  E  E
|-------------------|-------------------||
|-16p15-------------|-16p15-------------||
|-------15-------15-|-------15-------15-||
|----------15h17----|----------15h17----||
|-------------------|-------------------||
|-------------------|-------------------||


 Outro breakdown
  Into the pit Q.=116
  D5
  Gtr I
   PM---------------------------------------------
   S  S S S E S S E S S     S  S S S E S S E S S
|-----------------------|------------------------|
|-----------------------|------------------------|
|-----------------------|------------------------|
|-----------------------|------------------------|
|--0--0-0-0-0-0-0-0-0-0-|---0--0-0-0-0-0-0-0-0-0-|
|--0--0-0-0-0-0-0-0-0-0-|---0--0-0-0-0-0-0-0-0-0-|
|
| Gtr II
|  H.                      +H.
|-----------------------|------------------------|
|-----------------------|------------------------|
|-----------------------|------------------------|
|--0--------------------|--(0)-------------------|
|--0--------------------|--(0)-------------------|
|--0--------------------|--(0)-------------------|
|
| Gtr III
|  H.                      +H.
|-----------------------|------------------------|
|-----------------------|------------------------|
|-14--------------------|-(14)-------------------|
|-----------------------|------------------------|
|-----------------------|------------------------|
|-----------------------|------------------------|


 ---------------------------------------------|
    S  S S S E S S E S S     S  S E S S E S S E
|------------------------|-----------------------||
|------------------------|-----------------------||
|------------------------|-----------------------||
|------------------------|-----------------------||
|---0--0-0-0-0-0-0-0-0-0-|---0--0-0-0-0-0-0-0-0--||
|---0--0-0-0-0-0-0-0-0-0-|---0--0-0-0-0-0-0-0-0--||
|
|                            PM---------------|
|  +H.                       S  S E S S E S S E
|------------------------|-----------------------||
|------------------------|-----------------------||
|------------------------|-----------------------||
|--(0)-------------------|-----------------------||
|--(0)-------------------|---0--0-0-0-0-0-0-0-0--||
|--(0)-------------------|---0--0-0-0-0-0-0-0-0--||
|
|  +H.                      +H.
|------------------------|-----------------------||
|------------------------|-----------------------||
|-(14)-------------------|-(14)------------------||
|------------------------|-----------------------||
|------------------------|-----------------------||
|------------------------|-----------------------||


   "I will not die.."
    D5
    Gtr I
    PM-----------------------------------------
    S S S S E S S E S S   S S S S E S S E S S
||----------------------|---------------------|
||o---------------------|---------------------|
||----------------------|---------------------|
||----------------------|---------------------|
||o-0-0-0-0-0-0-0-0-0-0-|-0-0-0-0-0-0-0-0-0-0-|
||--0-0-0-0-0-0-0-0-0-0-|-0-0-0-0-0-0-0-0-0-0-|
|
|   Gtr II
|   PM-----------------------------------------
|   S S S S E S S E S S   S S S S E S S E S S
||----------------------|---------------------|
||o---------------------|---------------------|
||----------------------|---------------------|
||----------------------|---------------------|
||o-0-0-0-0-0-0-0-0-0-0-|-0-0-0-0-0-0-0-0-0-0-|
||--0-0-0-0-0-0-0-0-0-0-|-0-0-0-0-0-0-0-0-0-0-|


 ---------------------------------------------|
  S S S S E S S E S S   S S S S S S S S S S S S
|---------------------|--------------------------||
|---------------------|-------------------------o||
|---------------------|--------------------------||
|---------------------|--------------------------||
|-0-0-0-0-0-0-0-0-0-0-|-0-0-0-0-0-0-0-0-0-0-0-0-o||
|-0-0-0-0-0-0-0-0-0-0-|-0-0-0-0-0-0-0-0-0-0-0-0--||
|
|---------------------------------------------|
| S S S S E S S E S S   S S S S S S S S S S S S
|---------------------|--------------------------||
|---------------------|-------------------------o||
|---------------------|--------------------------||
|---------------------|--------------------------||
|-0-0-0-0-0-0-0-0-0-0-|-0-0-0-0-0-0-0-0-0-0-0-0-o||
|-0-0-0-0-0-0-0-0-0-0-|-0-0-0-0-0-0-0-0-0-0-0-0--||


  D5
  PM-----------------------------------------------------------------|
  E E S S E S S E   S S E S S E Q    H    S S E   S S E H      S S E H
|-----------------|----------------|------------|------------|------------|
|-----------------|----------------|------------|------------|------------|
|-----------------|----------------|------------|------------|------------|
|-----------------|----------------|------------|------------|------------|
|-0---0-0-0-0-0-0-|-0-0-0-0-0-0----|------0-0-0-|-0-0-0------|-0-0-0------|
|-0---0-0-0-0-0-0-|-0-0-0-0-0-0----|------0-0-0-|-0-0-0------|-0-0-0------|
|
| PM-----------------------------------------------------------------|
| E E S S E S S E   S S E S S E Q    H    S S E   S S E H      S S E H
|-----------------|----------------|------------|------------|------------|
|-----------------|----------------|------------|------------|------------|
|-----------------|----------------|------------|------------|------------|
|-----------------|----------------|------------|------------|------------|
|-0---0-0-0-0-0-0-|-0-0-0-0-0-0----|------0-0-0-|-0-0-0------|-0-0-0------|
|-0---0-0-0-0-0-0-|-0-0-0-0-0-0----|------0-0-0-|-0-0-0------|-0-0-0------|


  D5
  PM-----------------------------------------
  S S S S E S S E S S   S S S S E S S E S S
|---------------------|---------------------|
|---------------------|---------------------|
|---------------------|---------------------|
|---------------------|---------------------|
|-0-0-0-0-0-0-0-0-0-0-|-0-0-0-0-0-0-0-0-0-0-|
|-0-0-0-0-0-0-0-0-0-0-|-0-0-0-0-0-0-0-0-0-0-|
|
| PM-----------------------------------------
| S S S S E S S E S S   S S S S E S S E S S
|---------------------|---------------------|
|---------------------|---------------------|
|---------------------|---------------------|
|---------------------|---------------------|
|-0-0-0-0-0-0-0-0-0-0-|-0-0-0-0-0-0-0-0-0-0-|
|-0-0-0-0-0-0-0-0-0-0-|-0-0-0-0-0-0-0-0-0-0-|


 ---------------------------------------------|
  S S S S E S S E S S   S S S S S S S S S S S S
|---------------------|--------------------------|
|---------------------|--------------------------|
|---------------------|--------------------------|
|---------------------|--------------------------|
|-0-0-0-0-0-0-0-0-0-0-|-0-0-0-0-0-0-0-0-0-0-0-0--|
|-0-0-0-0-0-0-0-0-0-0-|-0-0-0-0-0-0-0-0-0-0-0-0--|
|
|---------------------------------------------|
| S S S S E S S E S S   S S S S S S S S S S S S
|---------------------|--------------------------|
|---------------------|--------------------------|
|---------------------|--------------------------|
|---------------------|--------------------------|
|-0-0-0-0-0-0-0-0-0-0-|-0-0-0-0-0-0-0-0-0-0-0-0--|
|-0-0-0-0-0-0-0-0-0-0-|-0-0-0-0-0-0-0-0-0-0-0-0--|


  N.C.                                    D5                        N.C.
                                          PM----------------------| TP
                       |----4:3----|
   S  S S S  S  S S S  S   S   S   S  S   S S E S S E S S E   S S E H     a
|---------------------<7>---------------|-------------------|----------------|
|-------------------------<7>-----------|-------------------|----------------|
|-----------------------------<7>-------|-------------------|----------------|
|---------------------------------<7>---|-------------------|----------------|
|-10-10-7-7-10-10-7-7-------------------|-0-0-0-0-0-0-0-0-0-|-0-0-0-8s===22--|
|---------------------------------------|-0-0-0-0-0-0-0-0-0-|-0-0-0----------|
|
|                                         PM----------------------| TP
|                      |----4:3----|
|  S  S S S  S  S S S  S   S   S   S  S   S S E S S E S S E   S S E H     a
|---------------------<7>---------------|-------------------|----------------|
|-------------------------<7>-----------|-------------------|----------------|
|-----------------------------<7>-------|-------------------|----------------|
|---------------------------------<7>---|-------------------|----------------|
|-10-10-7-7-10-10-7-7-------------------|-0-0-0-0-0-0-0-0-0-|-0-0-0-8s===22--|
|---------------------------------------|-0-0-0-0-0-0-0-0-0-|-0-0-0----------|


                                                               1.
    D5
    PM----------------------------------------------------------------|
    S S E S S E S S E   S S E H      Q  S S E S S E   H.        S S E H
||--------------------|------------|----------------|---------|-------------||
||o-------------------|------------|----------------|---------|------------o||
||--------------------|------------|----------------|---------|-------------||
||--------------------|------------|----------------|---------|-------------||
||o-0-0-0-0-0-0-0-0-0-|-0-0-0------|----0-0-0-0-0-0-|---------|-0-0-0------o||
||--0-0-0-0-0-0-0-0-0-|-0-0-0------|----0-0-0-0-0-0-|---------|-0-0-0-------||
|
|   PM----------------------------------------------------------------|
|   S S E S S E S S E   S S E H      Q  S S E S S E   H.        S S E H
||--------------------|------------|----------------|---------|-------------||
||o-------------------|------------|----------------|---------|------------o||
||--------------------|------------|----------------|---------|-------------||
||--------------------|------------|----------------|---------|-------------||
||o-0-0-0-0-0-0-0-0-0-|-0-0-0------|----0-0-0-0-0-0-|---------|-0-0-0------o||
||--0-0-0-0-0-0-0-0-0-|-0-0-0------|----0-0-0-0-0-0-|---------|-0-0-0-------||


 Outro
  2.
  Dm
   H.         +H.         +H.         +H.         +H.
|----------|-----------|-----------|-----------|---------|
|-10-------|-(10)------|-(10)------|-(10)------|-(10)----|
|-10-------|-(10)------|-(10)------|-(10)------|-(10)----|
|-12-------|-(12)------|-(12)------|-(12)------|-(12)----|
|--0-------|--(0)------|--(0)------|--(0)------|--(0)----|
|--0-------|--(0)------|--(0)------|--(0)------|--(0)----|
|
|  H.         +H.         +H.         +H.         +H.
|----------|-----------|-----------|-----------|---------|
|----------|-----------|-----------|-----------|---------|
|----------|-----------|-----------|-----------|---------|
|--0-------|--(0)------|--(0)------|--(0)------|--(0)----|
|--0-------|--(0)------|--(0)------|--(0)------|--(0)----|
|--0-------|--(0)------|--(0)------|--(0)------|--(0)----|


  (Dm)
   +H.         +H.         +H.         +H.         +H.
|-----------|-----------|-----------|-----------|---------*|
|-(10)------|-(10)------|-(10)------|-(10)------|-(10)----*|
|-(10)------|-(10)------|-(10)------|-(10)------|-(10)----*|
|-(12)------|-(12)------|-(12)------|-(12)------|-(12)----*|
|--(0)------|--(0)------|--(0)------|--(0)------|--(0)----*|
|--(0)------|--(0)------|--(0)------|--(0)------|--(0)----*|
|
|  +H.         +H.         +H.         +H.         +H.
|-----------|-----------|-----------|-----------|---------*|
|-----------|-----------|-----------|-----------|---------*|
|-----------|-----------|-----------|-----------|---------*|
|--(0)------|--(0)------|--(0)------|--(0)------|--(0)----*|
|--(0)------|--(0)------|--(0)------|--(0)------|--(0)----*|
|--(0)------|--(0)------|--(0)------|--(0)------|--(0)----*|


Duration Legend
---------------
W - whole; H - half; Q - quarter; E - 8th; S - 16th; T - 32nd; X - 64th; a - acciaccatura
+ - note tied to previous; . - note dotted; .. - note double dotted
Uncapitalized letters represent notes that are staccato (1/2 duration)
Irregular groupings are notated above the duration line
Duration letters will always appear directly above the note/fret number it represents the
duration for.  Duration letters with no fret number below them represent rests.  Multi-
bar rests are notated in the form Wxn, where n is the number of bars to rest for.  Low
melody durations appear below the staff

Tablature Legend
----------------
 h   - hammer-on
 p   - pull-off
 b   - bend
 pb  - pre-bend
 r   - bend release (if no number after the r, then release immediately)
 /\  - slide into or out of (from/to "nowhere")
 s   - legato slide
 S   - shift slide
  - natural harmonic
[n]  - artificial harmonic
n(n) - tapped harmonic
 ~   - vibrato
 tr  - trill
 T   - tap
 TP  - trem. picking
 PM  - palm muting
\n/  - tremolo bar dip; n = amount to dip
 \n  - tremolo bar down
 n/  - tremolo bar up
/n\  - tremolo bar inverted dip
 =   - hold bend; also acts as connecting device for hammers/pulls
 <>  - volume swell (louder/softer)
 x   - on rhythm slash represents muted slash
 o   - on rhythm slash represents single note slash

Misc Legend
-----------
 |  - bar
||  - double bar
||o - repeat start
o|| - repeat end
*|  - double bar (ending)
 :  - bar (freetime)
 $  - Segno
 &  - Coda
Tempo markers -  = BPM(8/16=s8/s16), where s8 = swing 8ths, s16 = swing 16ths
Tap to rate this tab
# A B C D E F G H I J K L M N O P Q R S T U V W X Y Z