Song name
# A B C D E F G H I J K L M N O P Q R S T U V W X Y Z

My Bitter End - Salvage The Structure tab

Help us improve GuitareTab! Take a short survey!
~ Let Ring
hp Hammer Pull

|-------------------------------------------------------------------|
|-------------------------------------------------------------------|
|---9hp10-7-9--------------------------12-----12-----12-----12------|
|7~-------------10-9hp10-7-9----9~-10~---10-10--10-10--10-10--10-10-|
|----------------------------10-------------------------------------|
|-------------------------------------------------------------------|
X3 

|----------------------------------------------------------|
|----------------------------------------------------------|
|12-----12--------------10~-12~-14~-16~-17-16-16-16-14-16~-|
|--10-10--10-10-10~-12~------------------------------------|
|----------------------------------------------------------|
|----------------------------------------------------------|

|---------------------------------------------------------------------|
|-----------------------15~-18-18-18-17-17-17-13-18-18-18-17-17-17-13-|
|17-16-16-16-14-16~-17~-----------------------------------------------|
|---------------------------------------------------------------------|
|---------------------------------------------------------------------|
|---------------------------------------------------------------------|

|20-20-20-20-20-20------------------20-20-20-20-20-20------------------| 
|------------------18-18-18-18-18-18-----------------18-18-18-18-18-18-|   
|----------------------------------------------------------------------|
|----------------------------------------------------------------------|
|----------------------------------------------------------------------|
|----------------------------------------------------------------------|

|------------------------------------------------|    ^^^is part of 
|18s17-17-17-18p17-17-17-18p17-17-17-18p17-17-17-|    <<  also   
|------------------------------------------------|     Both X4
|------------------------------------------------|
|------------------------------------------------|
|------------------------------------------------|

By 80

Official Band page is http://profile.myspace.com/index.cfm?fuseaction=user.viewprofile&friendID=1007534
Related for Salvage The Structure tab