Song name
# A B C D E F G H I J K L M N O P Q R S T U V W X Y Z

My Bitter End - Finding Level Ground tab

hp = Hammer Pull
S = Slide
~ = Let Ring
pm = Palm Mute

Intro - Played Clean
|----------15hp16----------15hp16----|
|----------------16~-------------16~-|
|------13---------------13-----------|
|---13----------------13-------------|
|11-----------------11---------------|
|------------------------------------|

|-----------------------13~-|
|-------13hp14--------------|
|-------------13~-----13----|
|----11---------------------|
|--11---------------11------|
|11---------------11--------|

Intro/Verse 1 - Played With Distortion 
(all 0's on the top string are pm)
|------------------------------------------------------------|
|----9s8----9s8--------------------9s8----9s8----------------|
|------------------------------------------------------------|
|------------------------------------------------------------|
|------------------------------------------------------------|
|0-0-----0-0----0-0-0-00000000-0-0-----0-0----0-0-0-00000000-|

|-------------------------------------------|
|------16------16------16-----14------------|  
|-------------------------------------------|
|17-18---17-18---17-18---15-17--15-17-18-17-|     
|-------------------------------------------|
|-------------------------------------------|

|------------------------------------------------------------|
|----9s8----9s8--------------------9s8----9s8----------------|
|------------------------------------------------------------|
|------------------------------------------------------------|
|------------------------------------------------------------|
|0-0-----0-0----0-0-0-00000000-0-0-----0-0----0-0-0-00000000-|

|-------------------------------------------|
|------16------16------16-----14------------|  
|-------------------------------------------|
|17-18---17-18---17-18---15-17--15-17-18-17-|     
|-------------------------------------------|
|-------------------------------------------|

|------------------------------------------------------------|
|----9s8----9s8--------------------9s8----9s8----------------|
|------------------------------------------------------------|
|------------------------------------------------------------|
|------------------------------------------------------------|
|0-0-----0-0----0-0-0-00000000-0-0-----0-0----0-0-0-00000000-|

|---------|
|---------|
|15-17-20-|
|---------|
|---------|
|---------|
X4

|---------|
|---------|
|15-17-18-|
|---------|
|---------|
|---------|
X4

|---------|
|---------|
|15-17-20-|
|---------|
|---------|
|---------|
X4

|---------|
|---------|
|15-17-18-|
|---------|
|---------|
|---------|
X4
Tap to rate this tab
# A B C D E F G H I J K L M N O P Q R S T U V W X Y Z