Guitaretab - guitar tabs
Song name
# A B C D E F G H I J K L M N O P Q R S T U V W X Y Z

My Bloody Valentine - To Here Knows When tab

Song: To Here Knows When
Artist: My Bloody Valentine
Album: Loveless

Tabbed by TuffJordan

TUNING-EGDGBe <-Note the nonstandard tuning

Theres a lot going on in this song, but Iíve managed to pull out the chords from behind 
noise. The chorus may be slightly off, but the roots are right.

Intro:
      G
e|----------------------------------------------------|
B|----0-----------------------------------------------|
G|----0-----------------------------------------------|
D|----0-----------------------------------------------|
G|----0-----------------------------------------------|
E|----------------------------------------------------|
[ Tab from: http://www.guitaretab.com/m/my-bloody-valentine/108541.html ]
Verse:
      G        D4      Fsus2     C5
e|-------------7--------------------------------------|
B|-------------7--------------------------------------|
G|----7--------7--------5--------5--------------------|
D|----9--------7--------3--------5--------------------|
G|----0--------0--------0--------5--------------------|
E|-------------------------------3--------------------|


Chorus:
      G        D6(no fifth)C5       C5
e|----------------------------------------------------|
B|---0---------7--------------------------------------|
G|---0---------7--------5--------5--------------------|
D|---0---------9--------5--------5--------------------|
G|---0---------7--------5--------5--------------------|
E|----------------------3--------3--------------------|
Related for To Here Knows When tab