Song name
# A B C D E F G H I J K L M N O P Q R S T U V W X Y Z

My Bloody Valentine - Only Tomorrow tab

Song: only tomorrow
Band: My Bloody Valentine
From the much anticipated album, m b v.

Tabbed by: L.A Rai

Guitar outro:

E---------------------------------------------------------------|
B---------------------------------------------------------------|
G---------------------------------------------------------------|
D---------------------------------------------------------------|
A-12-7-9-10-10-10-9-7-----------7-------------------------------|
E----------------------10-10-10---7b--8-3--5-6-6-6-5-3-1-3/5----|



E-------------------------|
B-------------------------|
G-------------------------|
D-------------------------|
A-----------5-5-5-3-1-----|
E-6-6-6-5-3---------------|


E-------------------------------------------------------------------|
B-------------------------------------------------------------------|
G-------------------------------------------------------------------|
D-12---7-9-10-10-10-9-7----------7----------------------------------|
A-----------------------10-10-10---7--9-10-10-10-9-7----------7-----|
E----------------------------------------------------10-10-10---7---|
(x2)

E--------------------|
B--------------------|
G--------------------|
D-10----12-----------|
A----10----12--------|
E--------------------|

E-------------------------------------------------------------------|
B-------------------------------------------------------------------|
G-------------------------------------------------------------------|
D-12---7-9-10-10-10-9-7----------7----------------------------------|
A-----------------------10-10-10---7--9-10-10-10-9-7----------7-----|
E----------------------------------------------------10-10-10---7---|

If you get a chance check out my original music:

http://soundcloud.com/laura-rai

Thanks :)
Tap to rate this tab
# A B C D E F G H I J K L M N O P Q R S T U V W X Y Z