Song name
# A B C D E F G H I J K L M N O P Q R S T U V W X Y Z

My Bloody Valentine - When You Sleep tab

When You Sleep. Guitar Tab
Eb.Ab.Db.Gb.Bb.Eb - (1/2 Step Down)

**Listen to Song for Tremolo Glider Dips, Strumming & Chord Changes**


Intro/Main Riff:

~STRUM~

|-3-------5------8--| 
|-5-------7------10-| 
|-5-------7------10-| 
|-5-------7------10-| 
|-3-------5------8--| 
|-3-------5------8--|

Intro/Main Lead: (Doubled an Octave Higher)

|-7-8-7-------------5--| 
|-------8--5-6-5-------| 
|----------------5-----| 
|----------------------| 
|----------------------| 
|----------------------|

Verse:

~STRUM~

|-3-------3------3------3--| 
|-3-------0------3------3--| 
|-5-------5------5------5--| 
|-5-------5------5------0--| 
|-3-------0------3------5--| 
|--------------------------|

|-0-------3------3------3-----3--| 
|-3-------0------3------3-----3--| 
|-5-------5------5------5-----5--| 
|-5-------5------5------0-----5--| 
|-3-------0------3------5-----3--| 
|--------------------------------|


Intro/Main Riff:


|-3-------5------8--| 
|-5-------7------10-| 
|-5-------7------10-| 
|-5-------7------10-| 
|-3-------5------8--| 
|-3-------5------8--|

Intro/Main Lead:

|-7-8-7-------------5--| 
|-------8--5-6-5-------| 
|----------------5-----| 
|----------------------| 
|----------------------| 
|----------------------|

Verse:

|-3-------3------3------3-----------------| 
|-3-------0------3------3-----------------| 
|-5-------5------5------5-----------------| 
|-5-------5------5------0-----------------| 
|-3-------0------3------5-----------------| 
|-----------------------------------------|

|-3-------3------3------3-----3------------| 
|-3-------0------3------3-----3------------| 
|-5-------5------5------5-----5------------| 
|-5-------5------5------0-----5------------| 
|-3-------0------3------5-----3------------| 
|------------------------------------------|


Intro/Main Riff:

|-3-------5------8-----------------------| 
|-5-------7------10----------------------| 
|-5-------7------10----------------------| 
|-5-------7------10----------------------| 
|-3-------5------8-----------------------| 
|-3-------5------8-----------------------|

Intro/Main Lead: 

|-7-8-7-------------5--------------------| 
|-------8--5-6-5-------------------------| 
|----------------5-----------------------| 
|----------------------------------------| 
|----------------------------------------| 
|----------------------------------------|

Verse:

|-3-------3------3------3-----------------| 
|-3-------0------3------3-----------------| 
|-5-------5------5------5-----------------| 
|-5-------5------5------0-----------------| 
|-3-------0------3------5-----------------| 
|-----------------------------------------|

|-3-------3------3------3-----3------------| 
|-3-------0------3------3-----3------------| 
|-5-------5------5------5-----5------------| 
|-5-------5------5------0-----5------------| 
|-3-------0------3------5-----3------------| 
|------------------------------------------|


Intro/Main Riff:


|-3-------5------8-----------------------| 
|-5-------7------10----------------------| 
|-5-------7------10----------------------| 
|-5-------7------10----------------------| 
|-3-------5------8-----------------------| 
|-3-------5------8-----------------------|

Intro/Main Lead: 

|-7-8-7-------------5--------------------| 
|-------8--5-6-5-------------------------| 
|----------------5-----------------------| 
|----------------------------------------| 
|----------------------------------------| 
|----------------------------------------|


End Chord:

|-3--| 
|-3--| 
|-5--| 
|-5--| 
|-3--| 
|-3--|


~~~~~~~~~~~~+~~~~~~~~~~~~
Tap to rate this tab
# A B C D E F G H I J K L M N O P Q R S T U V W X Y Z