Song name
# A B C D E F G H I J K L M N O P Q R S T U V W X Y Z

My Bloody Valentine - To Here Knows When tab

To Here Knows When. Guitar Tab

E.B.E.Ab.B.E. (Capo 3rd Fret) Written in relation to 3rd Fret = Open

Disclaimer:

This song sounds weird when played acoustically &/or dry,
but if you smother it with Reverse Reverb & Distortion ETC, it sounds pretty darn 
accurate if you ask me!

I think the original was tuned a whole tone and a half higher and played without a capo 
as Kevin can be seen playing live a few years back without a capo. I felt using a capo 
would be easier to transcribe with without destroying my gauge 10 strings.

Listen to the song for Tremolo Glider Dips, Strumming Pattern, and Chord Changes.

() = Optional/Not too sure if chord/note is played.


Intro/Pre-Verse:

~STRUM~

|-4--|
|-5--|
|-0--|
|-4--|
|----|
|----|

Verse:

~STRUM~

|-0----0----0----0-----------|
|-5----0----0----0-----------|
|-0----7----3----3-----------|
|-4----0----0----5-----------|
|------7----3---(5)----------|
|----------------------------|

Chorus:

~STRUM~

|-0----0----0----(0)-----------|
|-5----7----0----(0)-----------|
|-0----0----0----(0)-----------|
|-4----5----7----(5)-----------|
|(5)---0----0----(0)-----------|
|-----(7)---5----(5)-----------|

Intro/Pre-Verse:

|-4--|
|-5--|
|-0--|
|-4--|
|----|
|----|

Verse:

|-0----0----0----0-----------|
|-5----0----0----0-----------|
|-0----7----3----3-----------|
|-4----0----0----5-----------|
|------7----3---(5)----------|
|----------------------------|

Chorus:

|-0----0----0----(0)-----------|
|-5----7----0----(0)-----------|
|-0----0----0----(0)-----------|
|-4----5----7----(5)-----------|
|(5)---0----0----(0)-----------|
|-----(7)---5----(5)-----------|


Post-Chorus (After Second & Third Choruses):

~STRUM~

|-0-------------0------------|
|-5-------------5------------|
|-0-------------0------------|
|-4-------------5------------|
|(5)------------0------------|
|---------------5------------|

Chorus:

|-0----0----0----(0)-----------|
|-5----7----0----(0)-----------|
|-0----0----0----(0)-----------|
|-4----5----7----(5)-----------|
|(5)---0----0----(0)-----------|
|-----(7)---5----(5)-----------|

Post-Chorus (Play Indefinitely):

|-0-------------0------------|
|-5-------------5------------|
|-0-------------0------------|
|-4-------------5------------|
|(5)------------0------------|
|---------------5------------|


~~~~~~~~~~~~~+~~~~~~~~~~~~~~
Tap to rate this tab
# A B C D E F G H I J K L M N O P Q R S T U V W X Y Z