Song name
# A B C D E F G H I J K L M N O P Q R S T U V W X Y Z

My Bloody Valentine - Kevin Song tab

My Bloody Valentine - Kevin song 

Tuning: C# G# C# F# Bb Eb 453 HZ


Intro: X2
Eb|--0--0--|
Bb|--0--0--|
F#|--1--2--|
C#|--2--4--|
G#|--2--4--|
C#|--x--x--|

Verse:
Eb|--0--x--|
Bb|--0--9--|
F#|--1--9--|
C#|--2--7--|
G#|--2--0--|
C#|--x--x--|


Chorus:
Eb|--x--x------|
Bb|--x--x------|
F#|--7--9--10--|
C#|--7--9--10--|
G#|--5--7--9---|
C#|--5--7--9---|


Play the intro again after the chorus:
Eb|--0--0--|
Bb|--0--0--|
F#|--1--2--|
C#|--2--4--|
G#|--2--4--|
C#|--x--x--|

Tap to rate this tab
# A B C D E F G H I J K L M N O P Q R S T U V W X Y Z