Song name
# A B C D E F G H I J K L M N O P Q R S T U V W X Y Z

My Bloody Valentine - When You Wake Youre Still In A Dream tab

-------------------------------------------------------------------------------
	(When You Wake) You're Still In a Dream - My Bloody Valentine
-------------------------------------------------------------------------------
Tabbed by: paintITblack39
Email: psyche3991@sbcglobal.net

Tuning: DGDG#Ae 

Intro and Main riff:

e|--------------------------------------------------------------------------|
A|--------------------------------------------------------------------------|
G#|-10-10--10-10-10--6--8-8--8-8-8--6--8-8--8-8-8--6--10-10--10-10-10-------|
D|--9--9---9--9--9---5--7-7--7-7-7--5--7-7--7-7-7--5--9--9---9--9--9--------|
G|--11-11--11-11-11--7--9-9--9-9-9--7--9-9--9-9-9--7--11-11--11-11-11-------|
D|--9--9---9--9--9---5--7-7--7-7-7--5--7-7--7-7-7--5--9--9---9--9--9--------|
e|---------------------------------------------------------|
A|---------------------------------------------------------|
G#--6--8-8--8-8-8--6--8-8--8-8-8--6--10-10--10-10-10-------|
D|--5--7-7--7-7-7--5--7-7--7-7-7--5--9--9---9--9--9--------|
G|--7--9-9--9-9-9--7--9-9--9-9-9--7--11-11--11-11-11-------|
D|--5--7-7--7-7-7--5--7-7--7-7-7--5--9--9---9--9--9--------|

Verse:
Strum these chords:
e|----------------|
A|----------------|
G#|--8---10--6----|
D|---7---9---5----|
G|---9---11--7----|
D|---7---9---5----|

And there's this little pause thing:

e|----7~---|
A|----7~---|
G#|---8~---|
D|----7~---|
G|----9~---|
D|----7~---|

And that's all.


| /  slide up
| \  slide down
| h  hammer-on
| p  pull-off
| ~  vibrato
| +  harmonic
| x  Mute note
===============================================================================
Tap to rate this tab
 
# A B C D E F G H I J K L M N O P Q R S T U V W X Y Z