Song name
# A B C D E F G H I J K L M N O P Q R S T U V W X Y Z

My Chemical Romance - Im Not Okey I Promise tab

Gtr. 1
E|----------------||
B|----------------||
G|-77777777-------||
D|-xxxxxxxx-------||X4
A|-55555555-------||
E|----------------||
 |Gtr. 2
E|----------------|----------------|----------------|----------------||
B|----------------|----------------|----------------|----------------||
G|----------------|----------------|----------------|------7-7-------||
D|----------------|----------------|-77777777-------|-7777-7-7-------||
A|----------------|----------------|-55555555-------|-5555-5-5-------||
E|----------------|----------------|----------------|----------------||


  Gtr. 1 (Riff A)
E|------------------------|----------------|----------------|---------------r-||
B|15-15-15-15-15-15-15-15-|1010101010101010|88888888--------|77777777-------e-||
G|-x--x--x--x--x--x--x--x-|x-x-x-x-x-x-x-x-|xxxxxxxx--------|xxxxxxxx-------p-||
D|12-12-12-12-12-12-12-12-|7-7-7-7-7-7-7-7-|55555555--------|44444444-------e-||
A|------------------------|----------------|----------------|---------------a-||
E|------------------------|----------------|----------------|---------------t-||
 |Gtr. 2
E|----------------|----------------|----------------|----------------||
B|----------------|----------------|----------------|----------------||
G|-77777777-------|-66666666-------|-99999999-------|-7777-6-6-------||
D|-77777777-------|-77777777-------|-77777777-------|-7777-7-7-------||
A|-55555555-------|-55555555-------|-55555555-------|-5555-4-4-------||
E|----------------|----------------|----------------|----------------||

E|----------------|----------------|----------------|----------------||
B|----------------|----------------|-55555555-------|----------------||
G|-44444444-------|-66666666-------|-xxxxxxxx-------|-66666666-------||
D|-44444444-------|-44444444-------|-44444444-------|-44444444-------||
A|-22222222-------|-22222222-------|-22222222-------|-22222222-------||
E|----------------|----------------|----------------|----------------||

  Gtr. 1
E|----------------|----------------|----------------|----------------||
B|-88888888-------|1010101010101010|-55555555-------|-repeat---------||
G|-xxxxxxxx-------|x-x-x-x-x-x-x-x-|-xxxxxxxx-------|-previous-------||
D|-55555555-------|7-7-7-7-7-7-7-7-|-22222222-------|-measure--------||
A|----------------|----------------|----------------|----------------||
E|----------------|----------------|----------------|----------------||
 |Gtr. 2
E|----------------||
B|----------------||
G|----------------||
D|-22222222-------||X4
A|-22222222-------||
E|-00000000-------||

  Gtr. 1                                              (end of Riff A)
E|----------------|----------------|----------------|------------------------||
B|88888888--------|1010101010101010|1212121212121212|14-14-14-14-14-14-14-14-||
G|xxxxxxxx--------|x-x-x-x-x-x-x-x-|x-x-x-x-x-x-x-x-|-x--x--x--x--x--x--x--x-||
D|55555555--------|7-7-7-7-7-7-7-7-|9-9-9-9-9-9-9-9-|11-11-11-11-11-11-11-11-||
A|----------------|----------------|----------------|------------------------||
E|----------------|----------------|----------------|------------------------||
 |Gtr. 2
E|----------------|----------------|----------------|----------------||
B|----------------|00000000--------|22222222--------|-repeat---------||
G|22222222--------|22222222--------|22222222--------|-previous-------||
D|22222222--------|22222222--------|22222222--------|-measure--------||
A|00000000--------|00000000--------|00000000--------|----------------||
E|----------------|----------------|----------------|----------------||

  Gtr. 1
E|----------------|----------------|----------------|----------------||
B|----------------|-repeat---------|----------------|----------------||
G|----------------|-previous-------|----6----6---6--|----7---6766----||
D|----7---7--7----|-measure--------|----7----7---7--|----7---7777----||
A|-55--55--5------|----------------|-55---55---5----|-55---5---------||
E|----------------|----------------|----------------|----------------||
 | ..  ..  .                         ..   ..   .      ..   .
 |Gtr. 2(Rhythm Fig.1)
E|----------------|----------------|----------------|----------------||
B|----------------|----------------|----------------|----------------||
G|----------------|----------------|----------------|----------------||
D|-77777777-------|-77777777-------|-77777777-------|-7777-7777------||
A|-55555555-------|-55555555-------|-55555555-------|-5555-4444------||
E|----------------|----------------|----------------|----------------||
   ........         ........         ........         .... ....
  Gtr. 1
E|----------------|----------------|----------------|----------------||
B|----------------|-repeat---------|----------------|----------------||
G|----7----7---7--|-previous-------|----6----6---6--|----7---6767----||
D|----7----7---7--|-measure--------|----7----7---7--|----7---7777----||
A|----------------|----------------|----------------|----------------||
E|-77---77---7----|----------------|-77---77---7----|-77---7---------||
 | ..   ..   .                       ..   ..   .      ..   .
 |Gtr. 2
E|----------------||
B|----------------||
G|----------------||
D|-44444444-------||X4
A|-22222222-------||
E|----------------||
   ........
  Gtr. 1
E|----------------|----------------|----------------|----------------||
B|----------------|-repeat---------|----------------|----------------||
G|----7----7---7--|-previous-------|----6----6---6--|----7---6767----||
D|----7----7---7--|-measure--------|----7----7---7--|----7---7777----||
A|----------------|----------------|----------------|----------------||
E|-00---00---0----|----------------|-00---00---0----|-00---0---------||
 | ..   ..   .                       ..   ..   .      ..   .
 |Gtr. 2
E|----------------||
B|----------------||
G|----------------||
D|----------------||X4
A|-22222222-------||
E|-00000000-------||
   ........
  Gtr. 1
E|----------------|----------------|----------------|----------------||
B|----------------|-repeat---------|----------------|----------------||
G|----7----7---7--|-previous-------|----6----6---4--|-6-------6---4--||
D|----7----7---7--|-measure--------|----7----7---7--|-7-------7---7--||
A|-00---00---0----|----------------|-00---00---0----|---0-0-0---0----||
E|----------------|----------------|----------------|-----0-----0----||
 | ..   ..   .                       ..   ..   .        . . .
 |Gtr.2                                              (end of Rhy. Fig 1)
E|----------------|----------------|----------------|----------------||
B|----------------|----------------|----------------|----------------||
G|-------44-------|-44444444-------|-66666666-------|-666666---------||
D|-22222222-------|-22222222-------|-22222222-------|-222222-0-------||
A|-00000000-------|-00000000-------|-00000000-------|-000000-0-------||
E|----------------|----------------|----------------|----------------||

Gtr. 1 plays Riff A
Gtr. 2 chorus riff
E|----------------|----------------|----------------|----------------||
B|----------------|----------------|----------------|----------------||
G|-77777777-------|-66666666-------|-99999999-------|-7777-6666------||
D|-77777777-------|-77777777-------|-77777777-------|-7777-7777------||
A|-55555555-------|-55555555-------|-55555555-------|-5555-4444------||
E|----------------|----------------|----------------|----------------||

E|----------------|----------------|----------------|----------------||
B|----------------|----------------|-55555555-------|----------------||
G|-44444444-------|-66666666-------|-xxxxxxxx-------|-66666666-------||
D|-44444444-------|-44444444-------|-44444444-------|-44444444-------||
A|-22222222-------|-22222222-------|-22222222-------|-22222222-------||
E|----------------|----------------|----------------|----------------||

E|----------------||
B|----------------||
G|----------------||
D|-22222222-------||This measure X4
A|-22222222-------||
E|-00000000-------||


E|----------------|----------------|----------------|----------------||
B|----------------|-00000000-------|-22222222-------|-222222--2------||
G|-22222222-------|-22222222-------|-22222222-------|-222222--2------||
D|-22222222-------|-22222222-------|-22222222-------|-222222--2------||
A|-00000000-------|-00000000-------|-00000000-------|-000000--0------||
E|----------------|----------------|----------------|----------------||

  Gtr. 2 plays Rhythm Fig. 1
  Gtr. 1 plays this
E|----------------|----------------|----------------|----------------||
B|----------------|----------------|----------------|----------------||
G|----7----7------|-9---7---9767---|---7----7-------|-9---7---6767---||
D|----7----7------|-7---7---7777---|---7----7-------|-7---9---7777---||
A|-55---55---55---|---5---5--------|55---55---55----|---5---5--------||
E|----------------|----------------|----------------|----------------||
   ..   ..   ..       .   .         ..   ..   ..        .   .
E|----------------|----------------||
B|----------------|----------------||
G|----7----7------|-9---7---6767---||
D|----7----7------|-7---7---7777---||Play these
A|----------------|----------------||two measures
E|-77---77---77---|---7---7--------||twice
   ..   ..   ..       .   .
E|----------------|----------------||
B|----------------|----------------||
G|----7----7------|-9---7---6767---||
D|----7----7------|-7---7---7777---||Play these
A|----------------|----------------||two measures
E|-00---00---00---|---0---0--------||twice
   ..   ..   ..       .   .
E|----------------|----------------|----------------|----------------||
B|----------------|----------------|----------------|----------------||
G|----7----7------|-9---7---6767---|-----7-----7----|-6---4---6---4--||
D|----7----7------|-7---7---7777---|-7---7-----7----|-7---7---7---7--||
A|-00---00---00---|---0---0--------|---0-----0---00-|---0-------0----||
E|----------------|----------------|----------------|----------------||
   ..   ..   ..       .   .            .     .   ..     .       .
Gtr. 1 plays riff A
Gtr. 2 plays Chorus riff

  Solo:
  Gtr. 1
E|---------------------|----------------|------------------|----------------||
B|14-14-14-14----------|-15^(17)-15^(17)|-15^(17)r15-14-12~|12h14-----------||
G|-x--x--x--x----------|----------------|------------------|-----13~--------||
D|11-11-11-11-11^(12)11|----------------|------------------|----------------||
A|---------------------|----------------|------------------|----------------||
E|---------------------|----------------|------------------|----------------||
 |Gtr. 2
E|---------------------|----------------|----------------|----------------||
B|---------------------|----------------|----------------|----------------||
G|---------------------|----------------|----------------|----------------||
D|-2222----------------|-9--9--9--9-----|-9--9--9--9-----|-9--9--9--9-----||
A|-0000----------------|-9--9--9--9-----|-7--7--7--7-----|-7--7--7--7-----||
E|------5--6-----------|-7--7--7--7-----|-5--5--5--5-----|-4--4--4--4-----||

  Gtr. 1
E|----------------|----------------|-----------------|----------------||
B|----------12----|15^(17)-15^(17)-|15^(17)r15-14-15~|-(15)--15/17-14-||
G|-13-13-14-------|----------------|-----------------|----------------||
D|----------------|----------------|-----------------|----------------||
A|----------------|----------------|-----------------|----------------||
E|----------------|----------------|-----------------|----------------||
 |Gtr. 2
E|----------------|----------------|----------------|----------------||
B|----------------|----------------|----------------|----------------||
G|----------------|----------------|----------------|----------------||
D|-9--9--9--9-----|-7--7--7--7-----|-9--9--9--9-----|-4--4--4--4-----||
A|-7--7--7--7-----|-7--7--7--7-----|-7--7--7--7-----|-4--4--4--4-----||
E|-0--0--4--4-----|-5--5--5--5-----|-4--4--4--4-----|-2--2--2--2-----||

  Gtr. 1
E|---------12---------12|14-12-10h12-10p9|10p9--9-------9---|----------------||
B|14-12-14----14-12-14--|----------------|----12-12^(14)-r12|-12~~~~~~-------||
G|----------------------|----------------|------------------|----------------||
D|----------------------|----------------|------------------|----------------||
A|----------------------|----------------|------------------|----------------||
E|----------------------|----------------|------------------|----------------||
 |Gtr. 2
E|----------------|
B|----------------|
G|----------------|
D|-4--4--4--4-----|From here Gtr. 2
A|-4--4--4--4-----|plays the first four measures
E|-0--0--2--2-----|in the solo backing

  Gtr. 1
E|-------------9h10h12p10p9---||
B|---------9h10------------12-||
G|-----9h11-------------------||
D|11h12-----------------------||
A|----------------------------||
E|----------------------------||

  Gtr. 1
E|-9--------------|
B|-10-------------|
G|----------------|
D|-7--------------|Hold for 8 measures
A|----------------|
E|----------------|
 |Gtr. 2
E|-played---------|
B|-eight----------|
G|-times----------|
D|-22222222-------|
A|-00000000-------|
E|----------------|
   ........
  Gtr. 1 (Break down)
E|---------17-----|15p14-----------|------14--------|----------------||
B|-------15-------|-----15---------|----15----------|-----14-17------||
G|-----14---------|-------14-------|--14------------|---14-----------||
D|----------------|----------------|----------------|----------------||
A|----------------|---------17-----|17--------------|-16-------------||
E|----------------|----------------|----------------|----------------||

  Gtr. 1
E|----------------|----------------|----------------|----------------||
B|----------------|----------------|----------------|-let------------||
G|----------------|----------------|-------/scrape--|-ring-----------||
D|-4--------------|-(4)------------|-(4)--/---------|----------------||
A|-2--------------|-(2)------------|-(2)-/----------|----------------||
E|----------------|----------------|----------------|----------------||
 |Gtr. 2
E|----------------|----------------|----------------|----------------||
B|----------------|----------------|----------------|----------------||
G|----------------|----------------|----------------|-------------/--||
D|-4--------------|-(4)------------|-(4)-----000----|-(0)--------/---||
A|-2--------------|-(2)------------|-(2)------------|-----------/----||
E|----------------|----------------|----------------|----1-1--3------||

E|----------------|----------------|----------------|----------------||
B|----------------|----------------|----------------|----------------||
G|----------------|----------------|----------------|----------------||
D|-------feedback-|----------------|-------------x--|--0----x-x-(x)--||
A|-x--------------|----------------|-------------x--|-x--0-----------||
E|-x--------------|----------------|----------------|----x--0--------||

E|----------------|----------------|----------------|----------------||
B|-2--------------|-(2)------------|----------------|----------------||
G|-2--------------|-(2)------------|----------------|----------------||
D|-2--------------|-(2)------------|-22222222-------|-2--------------||
A|-0--------------|-(0)------------|-00000000-------|-0--------------||
E|-0--------------|-(0)------------|----------------|----------------||
                                     ........

then Gtr. 1 plays Riff A and Gtr. 2 plays Chorus.
Then
  Gtr. 1
E|----------------|--------------------------|----------------|----------------||
B|1212121212121212|14-14-14-14-14-14-14-14-14|-repeat---------|-15-------------||
G|x-x-x-x-x-x-x-x-|-x--x--x--x--x--x--x--x--x|-previous-------|--x-------------||
D|9-9-9-9-9-9-9-9-|11-11-11-11-11-11-11-11-11|-measure--------|-12-------------||
A|----------------|--------------------------|----------------|----------------||
E|----------------|--------------------------|----------------|----------------||
 |Gtr. 2
E|----------------|----------------|----------------|----------------||
B|-00000000-------|-22222222-------|----------------|-7\-------------||
G|-22222222-------|-22222222-------|-22222220-------|-7\-------------||
D|-22222222-------|-22222222-------|-22222220-------|-7\-------------||
A|-00000000-------|-00000000-------|-00000000-------|-5\-------------||
E|----------------|----------------|----------------|-5\-------------||
Tap to rate this tab
 
# A B C D E F G H I J K L M N O P Q R S T U V W X Y Z