Guitaretab - guitar tabs
Song name
# A B C D E F G H I J K L M N O P Q R S T U V W X Y Z

My Chemical Romance - Stay tab

Song: Stay
Artist: My Chemical Romance
Album: ? not yet released
Tabbed By: Freddie DiPietro

I tabbed this for one guitar, i realize there are two guitar parts and now a keyboard 
but i wanted to be able to play this song because i think it's amazing, so this may not be 
tab for when they actually record it but this should give you something to play around with.


INTRO
e|------14--13-------------14--13------------14--13------------14--13--------|
B|--16--------16--16---16--------16--16--16--------16--16--16--------16--16--|
G|15--15--15----15---15--15--15----15--15--15--15----15--15--15--15----15----|
D|---------------------------------------------------------------------------|
A|---------------------------------------------------------------------------|
E|---------------------------------------------------------------------------|

e|------14--13------------14--13---------------------------------------------|
B|--16--------16--16--16--------16--16----13-12------------------------------|
G|15--15--15----15--15--15--15----15-----------11-12-11-11-12-11-10----------|
D|---------------------------------------------------------------------------|
A|---------------------------------------------------------------------------|
E|---------------------------------------------------------------------------|

e|---------------------------------------------------------------------------|
B|13-12----------------------------------------------------------------------|
G|-----11-12-11-11-12-11-10--------------------------------------------------|
D|---------------------------------------------------------------------------|
A|---------------------------------------------------------------------------|
E|---------------------------------------------------------------------------|

e|---------------------------------------------------------------------------|
B|---------------------------------------------------------------------------|
G|---------------------------------------------------------------------------|
D|2~--4~--5~--10~-7~~---2~--4~--5~--10~-7~-----------------------------------|
A|2~--4~--5~--10~-7~~---2~--4~--5~--10~-7~-----------------------------------|
E|0~--2~--3~--8~--5~~---0~--2~--3~--8~--5~-----------------------------------|

e|---------------------------------------------------------------------------|
B|---------------------------------------------------------------------------|
G|999999997999911111112-12-12-999999997999911111112-12-12--------------------|
D|---------------------------------------------------------------------------|
A|77777777577779-9-9-10-10-10-77777777577779-9-9-10-10-10--------------------|
E|---------------------------------------------------------------------------|

Verse 1
e|--7~--7-----7--------------------------------------------------------------|
B|-8---8-8---5-5-------------------------------------------------------------|
G|9---7---7-5-----999999997999911111112-12-12-999999997999911111112-12-12----|
D|---------------------------------------------------------------------------|
A|----------------77777777577779-9-9-10-10-10-77777777577779-9-9-10-10-10----|
E|---------------------------------------------------------------------------|
Chorus
e|---------------------------------------------------------------------------|
B|---------------------------------------------------------------------------|
G|1212121212121212--------9-9-9-9-9999999955557777--X2-----------------------|
D|1212121212121212121212129-9-9-9-9999999955557777---------------------------|
A|101010101010101012121212111111117777777733335555---------------------------|
E|----------------10101010---------------------------------------------------|
[ Tab from: http://www.guitaretab.com/m/my-chemical-romance/161436.html ]
Verse 2
e|--7~--7-8-10-8-7--7~--7-8-10-8-7-------------------------------------------|
B|-8---8-----------8---8-----------------------------------------------------|
G|9---7-----------9---7------------------------------------------------------|
D|---------------------------------------------------------------------------|
A|---------------------------------------------------------------------------|
E|---------------------------------------------------------------------------|

e|---------------------------------------------------------------------------|
B|---------------------------------------------------------------------------|
G|999999997999911111112-12-12-999999997999911111112-12-12--------------------|
D|---------------------------------------------------------------------------|
A|77777777577779-9-9-10-10-10-77777777577779-9-9-10-10-10--------------------|
E|---------------------------------------------------------------------------|

Chorus
e|---------------------------------------------------------------------------|
B|---------------------------------------------------------------------------|
G|1212121212121212--------9-9-9-9-9999999955557777--X2-----------------------|
D|1212121212121212121212129-9-9-9-9999999955557777---------------------------|
A|101010101010101012121212111111117777777733335555---------------------------|
E|----------------10101010---------------------------------------------------|

Bridge
e|---------------------------------------------------------------------------|
B|---------------------------------------------------------------------------|
G|---------------------------------------------------------------------------|
D|77777777544444444-77777777544444444-77777777544444444-777777775------------|
A|77777777544444444-77777777544444444-77777777544444444-777777775------------|
E|55555555322222222-55555555322222222-55555555322222222-555555553------------|

e|---------------------------------------------------------------------------|
B|---------------------------------------------------------------------------|
G|-----------------55555555--8-8-7-7-----------------------------------------|
D|1010101010101010-55555555--------------------------------------------------|
A|1010101010101010-33333333-6-6-5-5------------------------------------------|
E|8-8-8-8-8-8-8-8------------------------------------------------------------|

Solo
e|-----------------------------------------------------------------------------|
B|-----------------------------------------------------------------------------|
G|1212121212121212111212121219191919121212121212119111212121214121112----------|
D|-----------------------------------------------------------------------------|
A|10101010101010109-10101010171717171010101010109-79-101010101210-910----------|
E|-----------------------------------------------------------------------------|

Chorus
e|---------------------------------------------------------------------------|
B|---------------------------------------------------------------------------|
G|1212121212121212--------9-9-9-9-9999999955557777--X2-----------------------|
D|1212121212121212121212129-9-9-9-9999999955557777---------------------------|
A|101010101010101012121212111111117777777733335555---------------------------|
E|----------------10101010---------------------------------------------------|

Bridge
e|---------------------------------------------------------------------------|
B|---------------------------------------------------------------------------|
G|---------------------------------------------------------------------------|
D|77777777544444444-77777777544444444-77777777544444444-77777777510101010----|
A|77777777544444444-77777777544444444-77777777544444444-77777777510101010----|
E|55555555322222222-55555555322222222-55555555322222222-5555555538-8-8-8-----|

Outro
e|---------------------------------------------------------------------------|
B|---------------------------------------------------------------------------|
G|---------------------------------------------------------------------------|
D|9~-7~-5~~------------------------------------------------------------------|
A|9~-7~-5~~------------------------------------------------------------------|
E|7~-5~-3~~------------------------------------------------------------------|

alright well here it is.... hope you enjoy. this is my first tab ever so any comments 
be appreciated... my email is, chefd2010@hotmail.com
Freddie DiPietro
Related for Stay tab
Advertisement will be closed in 10 seconds