Song name
# A B C D E F G H I J K L M N O P Q R S T U V W X Y Z

My Chemical Romance - Desolation Row tab

Okay this is my fisrt shot at this song idk how acurate it is.

p - pull off
h - hammer on
b(#) - bend

Intro
verse
chorus
bridge 1
verse
chorus
bridge 2
solo
verse (PMed this time)
chorus (X2)
intro (X2)

(Guitar 1 Frank)
(Guitar 2 Ray)
(Guitar 3 Ray durring solo)

Intro (both guitars)
|-0--0---0-0-0-|
|-0--0---0-0-0-|
|-1--1---1-1-1-|
|-2--2---2-2-2-|
|-2--2---2-2-2-|
|-0--0---0-0-0-|

(verse)(X2 every time)
(Both guitars)
|-------------------------------------------------------------------|
|-------------------------------------------------------------------|
|------------------22222222--------444444444444444422222222---------|
|-22222222222222222222222222222222244444444444444442222222222222222-|
|-22222222222222222000000002222222222222222222222220000000022222222-|
|-00000000000000000--------00000000------------------------00000000-|

(chorus)
(Guitar 1)(tens not 1 then 0)
|------------------------------------------------------------------------|
|-101010101010101010101010101010--------10101010101010101010101010101010-|
|-x-x-x-x-x-x-x-x-x-x-x-x-x-x-x-99999999-x-x-x-x-x-x-x-x-x-x-x-x-x-x-x-x-|
|-7-7-7-7-7-7-7-7-7-7-7-7-7-7-7-xxxxxxxx-7-7-7-7-7-7-7-7-7-7-7-7-7-7-7-7-|
|-------------------------------77777777---------------------------------|
|------------------------------------------------------------------------|

(Guitar 1 continued)
|----------------------------------|
|-12121212121212121010101010101010-|
|-x-x-x-x-x-x-x-x-x-x-x-x-x-x-x-x--|
|-9-9-9-9-9-9-9-9-8-8-8-8-8-8-8-8--|
|----------------------------------|
|----------------------------------|

(chorus)
(Guitar 2)
|----------------------------------------------------------|
|----------------------------------------------------------|
|-2222222222222222--------22222222222222224444444422222222-|
|-22222222222222222222222222222222222222224444444422222222-|
|-00000000000000002222222200000000000000002222222200000000-|
|-----------------00000000---------------------------------|

(bridge 1)
(Guitar 1) (elevens not 1's)
|------------------------------|
|------------------------------|
|9/111111-9/1111111-9/11111111-|
|x/x-x-x--x/x-x-x-x-x/x-x-x-x--|
|7/9-9-9--7/9-9-9-9-7/9-9-9-9--|
|------------------------------|

(Guitar 2)
|-------------------------------|
|-------------------------------|
|-9/1111111-9/1111111-9/1111111-|
|-9/1111111-9/1111111-9/1111111-|
|-7/9-9-9-9-7/9-9-9-9-7/9-9-9-9-|
|-------------------------------|

(bridge 2)
(Both Guitars)
|---------------------------------------------|
|---------------------------------------------|
|-9999888866664444999911111111313131314141414-|
|-xxxxxxxxxxxxxxxxxxxx-x-x-x-x-x-x-x-x-x-x-x--|
|-777766664444222277779-9-9-91111111112121212-|
|---------------------------------------------|

(solo Guitar 2)
|---------------------------------------------------------------|
|------------10-12p10/9------------9------9------9------9-------|
|-9b-11-11-9------------11b(12)r11-11b(13)11b(13)11b(13)11b(13--|
|---------------------------------------------------------------|
|---------------------------------------------------------------|
|---------------------------------------------------------------|

(solo continued)
|---------------------------------------------------|
|---------------------------------------------------|
|-11b(13)r11p9h11p9---------------------------------|
|-------------------11b(12)r11b(12)r11b(12)r11-11-9-|
|---------------------------------------------------|
|---------------------------------------------------|

(Solo Guitar 3)
|---------------------------------------------------------------------|
|---------------------------------------------------------------------|
|------------9-11b(13)r11-11-9----------12h14p12h14p12h14p12/11h13p11-|
|-9--------9-------------------------9--------------------------------|
|--11----11--------------------11-12----------------------------------|
|-----12--------------------------------------------------------------|

(Solo Guitar 3 continued)
|-----------------------------------------------------------------|
|-----------------------------------------------------------------|
|-h13p11h13p11/10h12p10h12p10/9h10p9------------------------------|
|------------------------------------11b(12)r11b(12)r11b(12)r11-9-|
|-----------------------------------------------------------------|
|-----------------------------------------------------------------|
Tap to rate this tab
 
# A B C D E F G H I J K L M N O P Q R S T U V W X Y Z