Song name
# A B C D E F G H I J K L M N O P Q R S T U V W X Y Z

My Chemical Romance - Teenagers Live tab

Help us improve GuitareTab! Take a short survey!
                My Chemical Romance - Teenagers live tab

        Ray Toro - left speaker tab
Intro
E||-XXX----------------------------|
B||-XXX----------------------------|
G||-XXX-----/slide guitar up/------|
D||-XXX----------------------------|
A||-XXX----------------------------|
E||-XXX----------------------------|

E||------------0----------------0-----------------------------------------|
B||------------0----------------0-----------------------------------------|
G||------------0----------------0-----------------------------------------|
D||-22-2-2---------22-2-22----------22-4-2-5-2-4-2---99-9--9--------------|
A||-22-4-2---------22-4-22----------22-4-2-5-2-4-2---99-11-9--6-9---------|
E||--------2-4--------------2-4----------------------77-7--7------7-------|

E||---------------0-------------------------------------------------------0-----|
B||---------------0-------------------------------------------------------0-----|
G||---------------0-------------------------------------------------------0-----|
D||--------------------99-11-9----------------------------------22-2-2----------|
A||---77--9--5---------77-7--7---11-14-----99-11-9-12-9-11-9----22-4-2----------|
E||---55--5--7-5-9---------------------12--77-7--7-7--7-7--7------------2-4-----|

E||------------0----------------0-----------------------------------------|
B||------------0----------------0-----------------------------------------|
G||------------0----------------0-----------------------------------------|
D||-22-2-2---------22-2-22----------22-4-2-5-2-4-2---99-9--9--------------|
A||-22-4-2---------22-4-22----------22-4-2-5-2-4-2---99-11-9--6-9---------|
E||--------2-4--------------2-4----------------------77-7--7------7-------|

E||---------------0-------------------------------------------------------0-----|
B||---------------0-------------------------------------------------------0-----|
G||---------------0-------------------------------------------------------0-----|
D||--------------------99-11-9----------------------------------22-2-2----------|
A||---77--9--5---------77-7--7---11-14-----99-11-9-12-9-11-9----22-4-2----------|
E||---55--5--7-5-9---------------------12--77-7--7-7--7-7--7------------2-4-----|

E||------------0----------------0------0-----0-----------------------------------------|
B||------------0----------------0--------3-----2---------------------------------------|
G||------------0----------------0-----3-----2------------------------------------------|
D||-22-2-2---------22-2-22-----------------------22-4-2-5-2-4-2---99-9--9--------------|
A||-22-4-2---------22-4-22-----------------------22-4-2-5-2-4-2---99-11-9--6-9---------|
E||--------2-4--------------2-4-----------------------------------77-7--7------7-------|

E||---------------0---------------------------------------------------------|
B||---------------0---------------------------------------------------------|
G||---------------0------------------------------------------------2--------|
D||--------------------99-11-9-------------------------------------2--------|
A||---77--9--5---------77-7--7---11-14-----99-11-9-12-9-11-9-------2--------|
E||---55--5--7-5-9---------------------12--77-7--7-7--7-7--7----------------|

pre-chorus

E||---0------0------|
B||-----3------2----|
G||--3-----2--------|
D||-----------------|
A||-----------------|
E||-----------------|


Chorus

E||------------0----------------0-----------------------------------------|
B||------------0----------------0-----------------------------------------|
G||------------0----------------0-----------------------------------------|
D||-22-2-2---------22-2-22----------22-4-2-5-2-4-2---99-9--9--------------|
A||-22-4-2---------22-4-22----------22-4-2-5-2-4-2---99-11-9--6-9---------|
E||--------2-4--------------2-4----------------------77-7--7------7-------|

E||---------------0---------------------------------------------------------|
B||---------------0---------------------------------------------------------|
G||---------------0------------------------------------------------2--------|
D||--------------------99-11-9-------------------------------------2--------|
A||---77--9--5---------77-7--7---11-14-----99-11-9-12-9-11-9-------2--------|
E||---55--5--7-5-9---------------------12--77-7--7-7--7-7--7----------------|

verse

E||-------------0----------------0-----------------------------------------|
B||---------------3-----------------2--------------------------------------|
G||------------3----------------2------------------------------------------|
D||-22-2-2---------22-2-22----------22-4-2-5-2-4-2---99-9--9---------------|
A||-22-4-2---------22-4-22----------22-4-2-5-2-4-2---99-11-9--6-9----------|
E||--------2-4--------------2-4----------------------77-7--7------7--------|

E||---------------0---------------------------------------------------------|
B||---------------0---------------------------------------------------------|
G||---------------0------------------------------------------------2--------|
D||--------------------99-11-9-------------------------------------2--------|
A||---77--9--5---------77-7--7---11-14-----99-11-9-12-9-11-9-------2--------|
E||---55--5--7-5-9---------------------12--77-7--7-7--7-7--7----------------|


pre-chorus

E||---0------0------|
B||-----3------2----|
G||--3-----2--------|
D||-----------------|
A||-----------------|
E||-----------------|


Chorus

E||------------0----------------0-----------------------------------------|
B||------------0----------------0-----------------------------------------|
G||------------0----------------0-----------------------------------------|
D||-22-2-2---------22-2-22----------22-4-2-5-2-4-2---99-9--9--------------|
A||-22-4-2---------22-4-22----------22-4-2-5-2-4-2---99-11-9--6-9---------|
E||--------2-4--------------2-4----------------------77-7--7------7-------|

E||---------------0---------------------------------------------------------|
B||---------------0---------------------------------------------------------|
G||---------------0------------------------------------------------2--------|
D||--------------------99-11-9-------------------------------------2--------|
A||---77--9--5---------77-7--7---11-14-----99-11-9-12-9-11-9-------2--------|
E||---55--5--7-5-9---------------------12--77-7--7-7--7-7--7----------------|

pre-solo


E||-----------------------|
B||-----------------------|
G||-----------------------|
D||-----------------------|
A||-----------------------|
E||--0-2-4----------------|


Solo

E||-----5-------5------5-5-5--7-7--9-9--12------------12-----------------|
B||-----5-------5------5-5-5--7-7--9-9--12------------12--15^12h15h12----|
G||-------7^-5-7---5-6----------------------14-12-13---------------------|
D||----------------------------------------------------------------------|
A||----------------------------------------------------------------------|
E||----------------------------------------------------------------------|

E||-----------------------5-------5---5~--5-------5--5--5----------------|
B||-----------------------5-------5---5~--5-------5--5--5----------------|
G||--12h14h12h14h12---------7-5-7-----------7-5-7------------------------|
D||-----------------14---------------------------------------------------|
A||----------------------------------------------------------------------|
E||----------------------------------------------------------------------|

E||------------------------------------|
B||------------------------------------|
G||-----9^9^9^9^9^9^9^9^9^9^9^~~~------|
B||------------------------------------|
G||------------------------------------|
D||------------------------------------|


Chorus

E||-XXXX----------------------------|
B||-XXXX----------------------------|
G||-XXXX-----/slide guitar up/------|
D||-XXXX----------------------------|
A||-XXXX----------------------------|
E||-XXXX----------------------------|

E||------------0----------------0-----------------------------------------|
B||------------0----------------0-----------------------------------------|
G||------------0----------------0-----------------------------------------|
D||-22-2-2---------22-2-22----------22-4-2-5-2-4-2---99-9--9--------------|
A||-22-4-2---------22-4-22----------22-4-2-5-2-4-2---99-11-9--6-9---------|
E||--------2-4--------------2-4----------------------77-7--7------7-------|

E||---------------0---------------------------------------------------------|
B||---------------0---------------------------------------------------------|
G||---------------0------------------------------------------------2--------|
D||--------------------99-11-9-------------------------------------2--------|
A||---77--9--5---------77-7--7---11-14-----99-11-9-12-9-11-9-------2--------|
E||---55--5--7-5-9---------------------12--77-7--7-7--7-7--7----------------|

E||-XXXX----------------------------|
B||-XXXX----------------------------|
G||-XXXX-----/slide guitar up/------|
D||-XXXX----------------------------|
A||-XXXX----------------------------|
E||-XXXX----------------------------|

E||------------0----------------0-----------------------------------------|
B||------------0----------------0-----------------------------------------|
G||------------0----------------0-----------------------------------------|
D||-22-2-2---------22-2-22----------22-4-2-5-2-4-2---99-9--9--------------|
A||-22-4-2---------22-4-22----------22-4-2-5-2-4-2---99-11-9--6-9---------|
E||--------2-4--------------2-4----------------------77-7--7------7-------|

E||---------------0---------------------------------------------------------|
B||---------------0---------------------------------------------------------|
G||---------------0------------------------------------------------2--------|
D||--------------------99-11-9-------------------------------------2--------|
A||---77--9--5---------77-7--7---11-14-----99-11-9-12-9-11-9-------2--------|
E||---55--5--7-5-9---------------------12--77-7--7-7--7-7--7----------------|

Outro

E||---0------0---------|
B||-----3------2-------|
G||--3-----2-----------|
D||----------------2---|
A||----------------2---|
E||--------------------|
Related for Teenagers Live tab