Song name
# A B C D E F G H I J K L M N O P Q R S T U V W X Y Z

My Chemical Romance - Thank You For The Venom tab

Song: Thank you for the venom.
Artist: My Chemical Romance.
Album: Three Cheers for Sweet Revenge.

^: Bend
Tr= Tremolo Picking
/\= Slide up and down
h;p= Hammer on; Pull up.

e|-----------------------------|
B|-----------------------------|
G|-----------------------------|
D|-0h4-0h4-0h4-0h4-0h4-0h4-0h4-|
A|-----------------------------|
E|-----------------------------|

 e|-------------------------------------------|
 B|-------------------------------------------|
 G|-4---/7-/7--6-7\6--4/6---7---/9-/9-7-6--|
 D|-------------------------------------------|
 A|-------------------------------------------|
 E|-------------------------------------------|
Tr|-------------------------------------------|
(Continued)
 e|--------------------------------------------|
 B|--------------------------------------------|
 G|-11---74--/11--/11---12--11--/9--/911--12|
 D|--------------------------------------------|
 A|--------------------------------------------|
 E|--------------------------------------------|
Tr|-----------------------------------------|


e|-------------------------------------12-14-15-17-17^-17^-17-15-14-|
B|-------------------12-14-15-12-14-15------------------------------|
G|-11-12-14-11-12-14------------------------------------------------|
D|------------------------------------------------------------------|
A|------------------------------------------------------------------|
E|------------------------------------------------------------------|
(Continued)
e|12-14-14^-14^--|
B|---------------|
G|---------------|
D|---------------|
A|---------------|
E|---------------|
(Continued)
e|---14-15-14-12-14-12----------15-14-12-14-12----------|
B|---------------------15-14-12----------------15-14----|
G|------------------------------------------------------|
D|------------------------------------------------------|
A|------------------------------------------------------|
E|------------------------------------------------------|
(Continued)
e|-------------------------------------------------------------------|
B|-15p14p12-14p12p11-11p9p8-8p7p5-5p3p2-2p0--------------------------|
G|------------------------------------------5p3p2-2p0----------------|
D|----------------------------------------------------5p3p2-2p0------|
A|--------------------------------------------------------------5p3p2|
E|-------------------------------------------------------------------|

(Continued)
e|-------------|
B|-------------|
G|-------------|
D|-------------|
A|2p0------3---|
E|-----2p0-----|

I think is 99% exact, comments of corrections: rock_willnever_die@hotmail.com

Tap to rate this tab
# A B C D E F G H I J K L M N O P Q R S T U V W X Y Z