Song name
# A B C D E F G H I J K L M N O P Q R S T U V W X Y Z

My Chemical Romance - Teenagers tab

Gutar 1
e--5------5---------5--7----------12----------12--|
B--5------5---------5--7----------12----------12--|
G----7^^----7---5-6-------9-7s8------14-12-13-----|
D-------------------------------------------------|
A-------------------------------------------------|
E-------------------------------------------------|

Gutar 1
e-------------------------------------------|
B--15^^(15)---12-15-12-10-12-10-8-10-8-9----|
G----------------------------------------9--|
D-------------------------------------------|
A-------------------------------------------|
E-------------------------------------------|

Gutar 1
e--5--------5--5-5--------5--7---------------------------|
B--5--------5--5-5--------5--7--7-7----------------------|
G----7-5-6---------7-5-6--------9-9^^(x12)-----9----^s1--|
D--------------------------------------------------------|
A--------------------------------------------------------|
E--------------------------------------------------------|

Gutar 2
e------------------------------------|
B------------------------------------|
G------------------------------------|
D--7777777777777777777777777777777222|
A--7777777777777777777777777777777222|
E--5555555555555555555555555555555000|

Gutar 2
e------------------------------------|
B------------------------------------|
G------------------------------------|
D--2222222222222222222222222222222222|
A--2222222222222222222222222222222222|
E--0000000000000000000000000000000000|

Gutar 2
e----------------------------------------------------------|
B----------------------------------------------------------|
G----------------------------------------------------------|
D--77777777777777777777777779999999999999999999999---2-----|
A--77777777777777777777777777999999999999999999999---2-----|
E--55555555555555555555555557777777777777777777777---0-----|

HOLD
Tap to rate this tab
# A B C D E F G H I J K L M N O P Q R S T U V W X Y Z