Song name
# A B C D E F G H I J K L M N O P Q R S T U V W X Y Z

My Chemical Romance - Dead tab

e|:|------------------------------------------------------------------------|
B|:|----12--------12--------12--------12------12--------------15^(17)r15-12-|
G|:|----14^(16)---14^(16)---14^(16)---14^(16)-14^(16)r14-12~~---------------|
D|:|------------------------------------------------------------------------|
A|:|------------------------------------------------------------------------|
E|:|------------------------------------------------------------------------|

e|:|-15^(17)12h15p12h15----12--------------12-14^(15)12h14p12h14----12------|
B|:|--------------------15----15h12p15h12-------------------------15--------|
G|:|------------------------------------------------------------------------|
D|:|------------------------------------------------------------------------|
A|:|------------------------------------------------------------------------|
E|:|------------------------------------------------------------------------|

e|:|-12--------12--------12---------------------------------------------------|
B|:|-14^(16)---14^(16)---14^(16)---12h15p12-----------------------------------|
G|:|---------------------------------------14h15p1412h14p12--14-12~~---------|
D|:|--------------------------------------------------------12----------------|
A|:|--------------------------------------------------------------------------|
E|:|--------------------------------------------------------------------------|
Tap to rate this tab
 
# A B C D E F G H I J K L M N O P Q R S T U V W X Y Z