Song name
# A B C D E F G H I J K L M N O P Q R S T U V W X Y Z

My Chemical Romance - I Dont Love You Live tab

My Chemical Romance
I Don't Love You (Live in Hoboken, NJ)
The Black Parade Is Dead

Tuning: Standard- EADGBe

Guitar 1- Ray Toro
Guitar 2- Frank Lero

This tab is all on frank except for the intro. If you have trouble with the timing
to this live performance of the song and you should get
and this video is how i learnt the tab. I like this version alot and i've got around 95% 
of it correct. Sorry the tab looks all over the place, its my first time hahaha im only 
teenager. Have fun with it :D

 |Guitar 1 Intro
e|12----12----12----12----12----12----12----12~~--12----12----12----12------|
B|13----13----13----13----13----13----13----13~~--13----13----13----13------|
G|--12----12----12----12----12----12----12----------12----12----12----12----|
D|--------------------------------------------------------------------------|
A|--------------------------------------------------------------------------|
E|--------------------------------------------------------------------------|

e|13----13----12----12----12----12----15----12----13----13----12----12------|
B|13----13----13----13----13----13----13----13----13----13----13----13------|
G|--12----12----12----12----14----14----14----14----14----14----14----14----|
D|--------------------------------------------------------------------------|
A|--------------------------------------------------------------------------|
E|--------------------------------------------------------------------------|

e|10----10----10----10----10----10----10----10----12----12----12----12------|
B|13----13----13----13----12----12----13----13------------------------------|
G|--12----12----12----12----12----12----12----12----12----12----12----12----|
D|--------------------------------------------------------------------------|
A|--------------------------------------------------------------------------|
E|--------------------------------------------------------------------------|

e|10----10------------------------------------------------------------------|
B|------------13----12----13~~----------------------------------------------|
G|--12----12----12----12----------------------------------------------------|
D|--------------------------------------------------------------------------|
A|--------------------------------------------------------------------------|
E|--------------------------------------------------------------------------|

 |Guitar 2 Verse 1
e|--------------------------------------------------------------------------|
B|--------------------------------------------------------------------------|
G|--------------------------------------------------------------------------|
D|--------------------------------------------------------------------------|
A|3h5--8~--7~~--5-5---7p5--3~~------7/8-8-10qbd~~-7---5~--7h8-7-------------|
E|--------------------------------------------------------------------------|

 |Verse 1
e|-------------------------------------------------xx-x--------------------|
B|-------------------------------------------------xx-x--------------------|
G|-------------------------------------------------xx-x--------------------|
D|-----------------------------2h3--3/5~~----2h3---xx-x--------------------|
A|3~~---5h7p5-------------2h3~------------------3--xx-x--------------------|
E|-------------3~~~--------------------------------xx-x--------------------|

 |Verse 1
e|--------------------------------------------------------------------------|
B|--------------------------------------------------------------------------|
G|1010-9--7-7-xx-7/9\7-5---1010-9--7-7-xx-7/9\7-5---1212-10--9-9-xx-7/9\7-5-|
D|-x-x-x--x-x-xx-x-x-x-x----x-x-x--x-x-xx-x-x-x-x----x-x--x--x-x-xx-x-x-x-x-|
A|-8-8-7--5-5-xx-5/7\5-3----8-8-7--5-5-xx-5/7\5-3---1010--8--7-7-xx-5/7\5-3-|
E|--------------------------------------------------------------------------|

 |Verse 1                                            |Bridge 1
e|---------------------------------------------------------------------------|
B|---------------------------------------------------------------------------|
E|---------------------------------------------------------------------------|
G|-1212-10--9-9-xx-7/9\7-5--5-5-5-5-5-5-5-5----------5/7779999777710101010-9-|
D|--x-x--x--x-x-xx-x-x-x-x--x-x-x-x-x-x-x-x-5~-------x/xxxxxxxxxxx-x-x-x-x-x-|
A|-1010--8--7-7-xx-5/7\5-3--3-3-3-3-3-3-3-3-5~-------3/55577775555-8-8-8-8-7-|
E|------------------------------------------3~-------------------------------|

 |Bridge      |Chorus
e|--------------------------------------------------------------------------|
B|--------------------------------------------------------------------------|
G|7-7/9\7-5---10---9-7--7-5-7-9-7-5-7-5--5-7-9-7-5--5-9-7-5-4-4-5-7--5~-----|
D|x-x-x-x-x----x---x-x--x-x-x-x-x-x-x-x--x-x-x-x-x--x-x-x-x-x-x-x-x--x------|
A|5-5/7\5-3----8---7-5--5-3-5-7-5-3-5-3--3-5-7-5-3--3-7-5-3-2-2-3-5--3~-----|
E|--------------------------------------------------------------------------|

 |Verse 2
e|--------------------------------------------------------------------------|
B|--------------------------------------------------------------------------|
G|0-5-7-5-0-5-7-5~-5-7-99-7-5-5qb-------------------------------------------|
D|--------------------------------5-5h7~~-----3-5-5/7~~-5-3-----------------|
A|----------------------------------------------------------3h5-5h7-----2h3-|
E|-----------------------------------------------------------------3~~~-----|

 |Verse 2          |Repeat second part of verse until...
e|------------xx-x-----------------------------------------------------------|
B|------------xx-x-----------------------------------------------------------|
G|------------xx-x---------------------------------------5-5-5-5-5-5-7-7-12~-|
D|2h3-3/5~~---xx-x---------------------------------------x-x-x-x-x-x-x-x--x--|
A|------------xx-x---------------------------------------3-3-3-3-3-3-5-5-10~-|
E|------------xx-x-----------------------------------------------------------|

 |Bridge 2                                |Repeat Chorus
e|-------------xx---------xx------------------------------------------------|
B|-------------xx---------xx------------------------------------------------|
G|9/1010101010-xx-7/99999-xx-5~----555555-----------------------------------|
D|x--x-x-x-x-x-xx---------xx-x-----xxxxxx-----------------------------------|
A|7/-8-8-8-8-8-xx-5/77777-xx-3~----333333-----------------------------------|
E|-------------xx---------xx------------------------------------------------|

 |Bridge into solo     |Sorry no Solo though it is great :(...Guitar 2
e|---------xx--------------------------------------------------------------|
B|---------xx--------------------------------------------------------------|
G|19191919-xx-19191919--77777777------------5-5--444-2~--------------------|
D|-x-x-x-x-xx--x-x-x-x--77777777-5--555555--5-5--444-2~--3~-2~-------------|
A|17171717-xx-17171717--55555555-5--555555--3-3--222-0~--------3~-3-3/5~~--|
E|---------xx--------------------3--333333---------------------------------|

                   |Quiet chorus  |Outro
e|---------------------------------------------------------------------------|
B|---------------------------------------------------------------------------|
G|77777----------5-----------------5~--7~--9-7-5-4-5-10-9--7--5--10-9--4-----|
D|77777-5-555555-5-----------------x---x---x-x-x-x-x-x--x--x--x--------------|
A|55555-5-555555-3~----------------3~--5~--7-5-3-2-3-8--7--5--3--8--7--2-3-7-|
E|------3-333333-------------------------------------------------------------|

e|--------------------------------------------------------------------------|
B|--------------------------------------------------------------------------|
G|10-12~--14~--910-9-7-9-7-5---5-7-9-7-5-4--4-5-7-5~~~----------------------|
D|x---x----x---x-x-x-x-x-x-x---x-x-x-x-x-x--x-x-x-x-------------------------|
A|8--10~--12~--7-8-7-5-7-5-3~--3-5-7-5-3-2--2-3-5-3~~~----------------------|
E|--------------------------------------------------------------------------|

|qb quater bend up
|qbd quater bend down
| /  slide up
| \  slide down
| h  hammer-on
| p  pull-off
| ~  vibrato
| x  mute note
============================================================================
Tap to rate this tab
# A B C D E F G H I J K L M N O P Q R S T U V W X Y Z