Song name
# A B C D E F G H I J K L M N O P Q R S T U V W X Y Z

My Chemical Romance - I Dont Love You Live tab

My Chemical Romance
I Don't Love You (Live in Hoboken,NJ)
The Black Parade Is Dead

Tabbed by:RyanC0215
Email:rcusa4@hotmail.com
Tuning: Standard-EADGBe

This is an update from the first version submitted under my name. Ray's parts are now in it aswell.

I have put all of Frank's part in 1st and scroll down to see Ray's part

IT HAS THE SOLO NOW!!! 100% correct :D

(Search in youtube "I Don't Love you Live In Hoboken" to view this live version)


Guitar 1-Ray Toro
Guitar 2-Frank Lero

                               Guitar 1

 |Intro
e|--------------------------------1-----------------------------------------|
B|1----------1----------3---------1--------3--------------------------------|
G|0----------2----------0---------2--------0--------------------------------|
D|2--X16-----2--X16-----0--X16----3--X8----0--X8----------------------------|
A|3----------0----------2---------3--------2--------------------------------|
E|----------------------3---------1--------3--------------------------------|

|Verse 1 (part 1)
e|--------------------------------------------------------------------------|
B|--------------------------------------------------------------------------|
G|--------------------------------------------------------------------------|
D|--------------------------------------------------------------------------|
A|3h5--8~--7~~--5-5---7p5--3~~----7/8-8-10qbd~~-7---5~--7h8-7---------------|
E|--------------------------------------------------------------------------|

 |Verse 1 (part 1)
e|-------------------------------------------------xx-x---------------------|
B|-------------------------------------------------xx-x---------------------|
G|-------------------------------------------------xx-x---------------------|
D|-----------------------------2h3--3/5~~----2h3---xx-x---------------------|
A|3~~---5h7p5-------------2h3~------------------3--xx-x---------------------|
E|-------------3~~~--------------------------------xx-x---------------------|

 |Verse 1 (part2)
e|--------------------------------------------------------------------------|
B|--------------------------------------------------------------------------|
G|1010-9--7-7-xx-7/9\7-5---1010-9--7-7-xx-7/9\7-5---1212-10--9-9-xx-7/9\7-5-|
D|-x-x-x--x-x-xx-x-x-x-x----x-x-x--x-x-xx-x-x-x-x----x-x--x--x-x-xx-x-x-x-x-|
A|-8-8-7--5-5-xx-5/7\5-3----8-8-7--5-5-xx-5/7\5-3---1010--8--7-7-xx-5/7\5-3-|
E|--------------------------------------------------------------------------|

 |Verse 1 (part 2)
e|--------------------------------------------------------------------------|
B|--------------------------------------------------------------------------|
E|--------------------------------------------------------------------------|
G|-1212-10--9-9-xx-7/9\7-5--5-5-5-5-5-5-5-5---------------------------------|
D|--x-x--x--x-x-xx-x-x-x-x--x-x-x-x-x-x-x-x-5~------------------------------|
A|-1010--8--7-7-xx-5/7\5-3--3-3-3-3-3-3-3-3-5~------------------------------|
E|------------------------------------------3~------------------------------|

 |Bridge 1
e|---------------------------------------------------------------------------|
B|---------------------------------------------------------------------------|
G|5/7779999777710101010-9~--77/9\7-5-----------------------------------------|
D|x-xxxxxxxxxxx-x-x-x-x-x---xx-x-x-x-----------------------------------------|
A|3/55577775555-8-8-8-8-7~--55/7\5-3-----------------------------------------|
E|---------------------------------------------------------------------------|

 |Chorus
e|--------------------------------------------------------------------------|
B|--------------------------------------------------------------------------|
G|101010101010-9-7~-7-5-7-9-7-5-7-5---5-7-9-7-5--5-9-7-5-4--4-5-7--5~~~-----|
D|x-x-x-x-x-x--x-x--x-x-x-x-x-x-x-x---x-x-x-x-x--x-x-x-x-x--x-x-x--x--------|
A|8-8-8-8-8-8--7-5~-5-3-5-7-5-3-5-3~--3-5-7-5-3--3-7-5-3-2--2-3-5--3~~~-----|
E|--------------------------------------------------------------------------|

|Verse 2 (part 1)
e|--------------------------------------------------------------------------|
B|--------------------------------------------------------------------------|
G|0-5-7-5-0-5-7-5~-5-7-99-7-5-5qb-------------------------------------------|
D|--------------------------------5-5h7~~-----3h5-5/7~-5-3-2------0h2-------|
A|------------------------------------------------------------2h3-----------|
E|--------------------------------------------------------------------3~~~--|

 |Verse 2 (part 1)     |Repeat Verse 1 (part 2) until...
e|----------------xx-x-------------------------------------------------------|
B|----------------xx-x-------------------------------------------------------|
G|----------------xx-x-----------------------------------5-5-5-5-5-5-5-5-7-7-|
D|----2h3-3/5~~---xx-x-----------------------------------x-x-x-x-x-x-x-x-x-x-|
A|2h3-------------xx-x-----------------------------------3-3-3-3-3-3-3-3-5-5-|
E|----------------xx-x-------------------------------------------------------|

e|--------------------------------------------------------------------------|
B|--------------------------------------------------------------------------|
G|1010101010101010----------------------------------------------------------|
D|-x-x-x-x-x-x-x-x----------------------------------------------------------|
A|8-8-8-8-8-8-8-8-----------------------------------------------------------|
E|--------------------------------------------------------------------------|


 |Bridge 2
e|-------------xx---------xx------------------------------------------------|
B|-------------xx---------xx------------------------------------------------|
G|9/1010101010-xx-7/99999-xx-555~----555555---------------------------------|
D|x--x-x-x-x-x-xx---------xx-xxx-----xxxxxx---------------------------------|
A|7/-8-8-8-8-8-xx-5/77777-xx-333~----333333---------------------------------|
E|-------------xx---------xx------------------------------------------------|

REPEAT CHORUS

 |Bridge into solo
e|---------xx---------------------------------------------------------------|
B|---------xx---------------------------------------------------------------|
G|19191919-xx-191919191919--77777777------------5-5--444-2~-----------------|
D|-x-x-x-x-xx--x-x-x-x x x--77777777-5--555555--5-5--444-2~--3~-2~----------|
A|17171717-xx-171717171717--55555555-5--555555--3-3--222-0~--------3~-------|
E|---------xx------------------------3--333333------------------------------|

                   |Quiet chorus... |Outro
e|---------------------------------------------------------------------------|
B|---------------------------------------------------------------------------|
G|77777------------5~-----------------5~--7~--9-7-5-4-5-10-9--7--5--10-9-4-5-|
D|77777-5-55555555-5~-----------------x---x---x-x-x-x-x-x--x--x--x--x--x-x-x-|
A|55555-5-55555555-3~-----------------3~--5~--7-5-3-2-3-8--7--5--3--8--7-2-3-|
E|------3-33333333-----------------------------------------------------------|

e|--------------------------------------------------------------------------|
B|--------------------------------------------------------------------------|
G|9-10-12~--14~--910-9-7-9-7-5~--5-7-9-7-5-4~--4-5-7-5~~~-------------------|
D|x-x---x----x---x-x-x-x-x-x-x---x-x-x-x-x-x---x-x-x-x----------------------|
A|7-8--10~--12~--7-8-7-5-7-5-3~--3-5-7-5-3-2~--2-3-5-3~~~-------------------|
E|--------------------------------------------------------------------------|

                              GUITAR 2

 |Intro
e|12----12----12----12----12----12----12----12~~--12----12----12----12------|
B|13----13----13----13----13----13----13----13~~--13----13----13----13------|
G|--12----12----12----12----12----12----12----------12----12----12----12----|
D|--------------------------------------------------------------------------|
A|--------------------------------------------------------------------------|
E|--------------------------------------------------------------------------|

e|13----13----12----12----12----12----15----12----13----13----12----12------|
B|13----13----13----13----13----13----13----13----13----13----13----13------|
G|--12----12----12----12----14----14----14----14----14----14----14----14----|
D|--------------------------------------------------------------------------|
A|--------------------------------------------------------------------------|
E|--------------------------------------------------------------------------|

e|10----10----10----10----10----10----10----10----12----12----12----12------|
B|13----13----13----13----12----12----13----13------------------------------|
G|--12----12----12----12----12----12----12----12----12----12----12----12----|
D|--------------------------------------------------------------------------|
A|--------------------------------------------------------------------------|
E|--------------------------------------------------------------------------|

e|10----10------------------------------------------------------------------|
B|------------13----12----13~~~~-///----------------------------------------|
G|--12----12----12----12----------------------------------------------------|
D|--------------------------------------------------------------------------|
A|--------------------------------------------------------------------------|
E|--------------------------------------------------------------------------|

 |Verse 1 (part 1)
e|-----------------------------xx-x-----------------------------------------|
B|1~---1~---3~---3~---1~---1~--xx-x-----------------------------------------|
G|2~---2~---0~---0~---0~---0~--xx-x-----------------------------------------|
D|2~---2~---0~---0~---2~---2~--xx-x-----------------------------------------|
A|0~---0~---2~---2~---3~---3~--xx-x-----------------------------------------|
E|----------3~---3~------------xx-x-----------------------------------------|

 |Verse 1 (part 2)
e|--------------------------------------------------------------------------|
B|--------------------------------------------------------------------------|
G|5-------2---------------5-------------------------------------------------|
D|5-X16---2-X16---5-------5-X16---------------------------------------------|
A|3-------0-------5-X16---3-------------------------------------------------|
E|----------------3---------------------------------------------------------|

 |Chorus
e|--------------------------------------------------------------------------|
B|--------------------------------------------------------------------------|
G|-----------------------------77777777-------------------------------------|
D|33333333-5555-6666-7777-2222-77777777-33333333-55555555-------------------|
A|33333333-5555-6666-7777-2222-55555555-33333333-55555555-3~~~--------------|
E|11111111-3333-4444-5555-0000----------11111111-33333333-------------------|


 |Verse 2 (part 1)
e|--------------------------------------------------xx-x--------------------|
B|---5--5--5--5-------3--3--3--3-------3--3--3--3---xx-x--------------------|
G|-5--5--5--5--5----5--5--5--5--5----4--4--4--4--4--xx-x--------------------|
D|5-5--5--5--5--5--5-5--5--5--5--5--5-5--5--5--5--5-xx-x--------------------|
A|--------------------------------------------------xx-x--------------------|
E|--------------------------------------------------xx-x--------------------|

Repeat Verse 1 (part 2)

Repeat Chorus

 |SOLO!!!
e|--------------------------------------------------------------------|
B|---hb-hb-hb-hb-hb---------------------------------------------------|
G|12-13-13-13-13-13-12-7-9-10p9-9~-7~-7h9-10-10p9-7-7~~------------10-|
D|-------------------------------------------------------10h12-12~----|
A|--------------------------------------------------------------------|
E|--------------------------------------------------------------------|

                                           | speeds up |
e|-------------------------------------------------------------------|
B|-------------------------------------------------------------------|
G|9-7-7h9~----------------------------------7-9-10p9-7\5-5/7~--------|
D|--------10-10~~-----xx12p10-----10/12~~12-------------------5-5~~--|
A|---------------10h12-------12p10-----------------------------------|
E|-------------------------------------------------------------------|

                             |hold the bends up
e|-------------------------------------------------------------------|
B|-------------------------------------------------------------------|
G|----------------------------hb-fb----------------------------------|
D|-----xx12p10------10~~~-12~-12-12~~~--\\\--------------------------|
A|10h12-------12p10--------------------------------------------------|
E|-------------------------------------------------------------------|

Quiet Chorus

 |Outro
e|-------------------------------------------------------------------|
B|-------------------------------------------------------------------|
G|5--4--2-----------------------5--4--2------------------------------|
D|5--4--2--5--33333333-55555555-5--4--2--5--33333333-55555555--------|
A|3--2--0--5--33333333-55555555-3--2--0--5--33333333-55555555-3~~~---|
E|---------3--11111111-33333333----------3--11111111-33333333--------|

Note when Ray is doing vibratos they are very strong as if he was doing a pinch harmonic.

|fb full bend
|hb half bend
|qb quater bend up
|qbd quater bend down
| /  slide up
| \  slide down
| h  hammer-on
| p  pull-off
| ~  vibrato
| x  mute note
============================================================================
Tap to rate this tab
# A B C D E F G H I J K L M N O P Q R S T U V W X Y Z